PrimaNota.ru - самый крупный в мире бесплатный архив песенных текстов, аккордов, табулатур и нот


Camp Kill Yourself - Santas Coming to Town - таба, видео

Регистрация Запомнить меня
Войти через:  Facebook Google Twitter Vk Yandex Mail.ru

Camp Kill Yourself - Santas Coming to Town - таба, видео

Печатать
Просмотров: 126
This is a Fat song You might of heard of this song
If you have watched cky's first video its quite
An easy song to play just listen to the song to
Get the timing Add lots of reverb to the clean
Parts and lots of bass to the Distortion parts.

E|-------------------------------------|
B|-------------------------------------|
G|-7---7-7/9\7---7---7-7/9\7-----------|
D|-7-7---------9-7-7---------9-7h5-----|
A|-----7-------------7---------------7-|
E|-------------------------------------|

E|--------------------------------------------------|
B|--------------------------------------------------|
G|-------------77-----------------------------------|
D|------7777h9--------777-9-7-55-4-7---4-2-4/5-4/-5-|
A|-5/9------------5/9----------------5--------------|
E|--------------------------------------------------|

E|-----------------------------------|
B|-----------------------------------|
G|-7---7-7/9\7---7---7-7/9\7---------|
D|-7-7---------9-7-7---------9-7h5---|
A|---7-------------7---------------7-|
E|-----------------------------------|


Distortion...............
E|--------------------------------------------------|
B|--------------------------------------------------|
G|-------------77-----------------777-9-888888888---|
D|------7777h9--------777-9-7-55--777-9-888888888---|
A|-5/9------------5/9-------------555-7-666666666---|
E|--------------------------------------------------|
PM          ..    ........

E|------------------------------------------------------------|
B|------------------------------------------------------------|
G|-7-9-7-6-7---7-9-7-6-7---9-11-9-8-9-------------9-----------|
D|-----------99----------9------------11-11-11-12---12-11-9-7-|
A|------------------------------------------------------------|
E|------------------------------------------------------------|
Добавлено: 14.07.2012
Другие материалы по этой песне:
  • Аккорды и текст

Страница создана 14.07.2012
http://primanota.ru/camp-kill-yourself/santas-coming-to-town-chords.htm
Привет, Гость.
Предлагаем пройти революционный курс по гитаре.
Подарок от PrimaNota.Ru, забирай!