PrimaNota.ru - самый крупный в мире бесплатный архив песенных текстов, аккордов, табулатур и нот


Camp Kill Yourself - Planetary - аккорды и текст, таба, видео

Регистрация Запомнить меня
Войти через:  Facebook Google Twitter Vk Yandex Mail.ru

Camp Kill Yourself - Planetary - аккорды и текст, таба, видео

Печатать
Просмотров: 169
Уроки эстрадного вокала в Санкт-Петербурге
Planetary
Camp Kill Yourself
		   Author/Artist: CKY
Title: Planetary
Album: ???
Transcribed by: Colin Kemege
Email: socksandspoons@hotmail.com
Website: http://ckytabs.cjb.net
Tuning:1/2 step down
This is an old instrumental song I strongly recommend you download it if you havn't already.

Main Riff/Intro x4
-|-----------------------------------------------------------------------------
-|-----------------------------------------------------------------------------
-|-------5---9--0-----9-----------------5---7--0----7------5-------------------
-|-----7---7-------------5---5-------7----7--------(x)-------------------------
-|--0--------------7-------7------0---------------7(5)-7-----------------------
-|-----------------------------------------------------------------------------

    riff A                         riff B   x2
-|-----------------------------------------------------------------------------
-|-----------------------------------------------------------------------------
-|------------------9999--7777-------------------------------------------------
-|-77777-77-7777----9999--7777-------------------------------------------------
-|-77777-77-7777----7777--5555-------------------------------------------------
-|-55555-55-5555--------------------0-2-0-2-0-2-0-2-4-0-4-0-4-0-4-0------------


(Play Riff A, guitar 2) Solo
-|-----------------------------------------------------------------------------
-|-----------------------------------------------------------------------------
-|--------------------------------------------------------------------------9--
-|-9--7p5h7~---7-5-7-12-10---9\7---7\5-/7----------7/9---7/12-7/9-7-5-7-5h7----
-|----------------------------------------7--5-77------------------------------
-|-----------------------------------------------------------------------------


-|-----------------------------------------------------------------------------
-|-----------------------------------------------------------------------------
-|-7---------------------------------------------------------------------------
-|----9-7--5h7-7/9--9/12--14-12-14h16-114-12-----------------------------------
-|-----------------------------------------------------------------------------
-|-----------------------------------------------------------------------------

break after solo
-|-----------------------------------------------------------------------------
-|-----------------------------------------------------------------------------
-|-5----5555--7-5555-5--7-5555-5--7-55555/9999---------------------------------
-|-5---------------------------------------------------------------------------
-|-3---------------------------------------------------------------------------
-|-----------------------------------------------------------------------------


Lil Riff Guitar 2 plays "break after solo"
-|-----------------------------------------------------------------------------
-|-----------------------------------------------------------------------------
-|-----------------------------------------------------------------------------
-|-----------------------------------------------------------------------------
-|-/12/11/10/9-8-7-------------------------------------------------------------
-|-----------------------------------------------------------------------------

Outro...the parenthese is what the 2nd guitar plays
-|-----------------------------------------------------------------------------
-|-----------------------------------------------------------------------------
-|---------------9-9-xx7-7-----------------------------------------------------
-|--(7)-(5)--------------------------------------------------------------------
-|---------(7)-----------------------------------------------------------------
-|--5---3---0------------------------------------------------------------------     
Добавлено: 30.08.2013
Другие материалы по этой песне:
  • Аккорды и текст

Страница создана 03.03.2012
http://primanota.ru/camp-kill-yourself/planetary-chords.htm
Привет, Гость.
Предлагаем пройти революционный курс по гитаре.
Подарок от PrimaNota.Ru, забирай!