PrimaNota.ru - самый крупный в мире бесплатный архив песенных текстов, аккордов, табулатур и нот


Camp Kill Yourself - Knee Deep - таба, видео

Регистрация Запомнить меня
Войти через:  Facebook Google Twitter Vk Yandex Mail.ru

Camp Kill Yourself - Knee Deep - таба, видео

Печатать
Просмотров: 154
Уроки эстрадного вокала в Санкт-Петербурге
Drop D tuning and have Echo Effect on if u have it.

1st string E
2nd string B
3rd string G
4th string D
5th string A
6th string D
Intro
E------------------------------
B------------------------------
G---7b-------------------------
D--7--7-5-5s3-5-5-5-3-5-0-0-3-3
A-5-------------3-3---3-1-1-1-1
D------------------------------

Riff A
E-----------------------
B-----------------------
G-----------------------
D-----------------------
A-0---5---3---0---10---8
D-0---5---3---0---10---8]

Solo
E-------------------------
B-------------------------
G-------------------------
D---0-2------0-2-0-2s4-2-0
A-2----2---0--------------
D-2----2-2----------------

Riff B

E-----3-3-1-1
B-----3-3-1-1
G-----3-3-2-2
D-----5-5-3-3
A-0----------
D-0----------

Key
S=Slide
B=Bend
Intro x4
Riff A x2
Intro x2
Riff A x1
Solo x10
Riff B x2
Riff A x2
Solo x4
Intro x4
Добавлено: 26.05.2012
Другие материалы по этой песне:
  • Аккорды и текст

Страница создана 26.05.2012
http://primanota.ru/camp-kill-yourself/knee-deep-chords.htm
Привет, Гость.
Предлагаем пройти революционный курс по гитаре.
Подарок от PrimaNota.Ru, забирай!