PrimaNota.ru - самый крупный в мире бесплатный архив песенных текстов, аккордов, табулатур и нот


Camp Kill Yourself - Inhuman Creation Station - таба, видео

Регистрация Запомнить меня
Войти через:  Facebook Google Twitter Vk Yandex Mail.ru

Camp Kill Yourself - Inhuman Creation Station - таба, видео

Печатать
Просмотров: 103
AIGHT I LEARNED THIS AT MY GUITAR LESSON AND IF YOU HAVE THE CKY2K MOVIE YOU'LL SEE WHEN DARON PLAYS IT LIVE, AND THE WAY IM GONNA TAB IT IS HOW HE PLAYS IT. THIS IS 100% CORRECT.

H=HAMMER ON
S=SLIDE
P-PULL OFF
/=SLIDE UP
\=SLIDE DOWN


ITS IN A HALF STEP DOWN SO, YEA

INTRO
Eb---------------------
Bb----------------------
Gb----------------------
Db-----3--5P3-----------
Ab--3H5------3P0--------
Eb---------------000--000

BREAK
Eb-----------------------
Bb------------------------
Gb----2-3p2p0----\7-5-----
Db---3--------3-------8-7-8
Ab------------------------
Eb------------------------

LITTLE THING AFTER BREAK
Eb----------------------Icouple times
Bb----------------------Ithen this
Gb----------------------I               LITTLE RIFF AFTER THING
Db-----0h2h3--00--000---I              -----0h2-
Ab--0h3-----------------I              --0h3----
Eb----------------------I              ---------

CHORUS  ( you gotta get the strumming patters cuz they confuse me )
Eb------    ---
Bb------    ---
Gb------    ---
Db---3--then---0then after that this thing ---x5--
Ab---3--    ---0                           ---x3x5
Eb---1--    ---0                           -----x3

AIGHT THATS ALL KIDDIES WELLL NOW IM GONNA PUT IT ALL IN ORDER

INTRO X4
BREAK X1
INTRO X6
BREAK X1
INTRO X6
BREAK X1
INTRO X1
BREAK X1
THING AFTER BREAK X8
LITTLE RIFF AFTER THING X1
CHORUS X2
THING AFTER BREAK X4
LITTLE RIFF AFTER THING X1
INTRO X4
BREAK X1
INTRO X6
BREAK X1
INTRO X1
BREAK X1
THING AFTER BREAK X8
LITTLE RIFF AFTER THING X1
CHORUS X2
THING AFTER BREAK X8
LITTLE RIFF AFTER THING X1

YAY YOU'RE DONE NOW WASNT THAT HARD!
Добавлено: 22.03.2012
Другие материалы по этой песне:

Страница создана 22.03.2012
http://primanota.ru/camp-kill-yourself/inhuman-creation-station-chords.htm
Привет, Гость.
Предлагаем пройти революционный курс по гитаре.
Подарок от PrimaNota.Ru, забирай!