PrimaNota.ru - самый крупный в мире бесплатный архив песенных текстов, аккордов, табулатур и нот


Camp Kill Yourself - Human Drive In Hi-fi - таба, видео

Регистрация Запомнить меня
Войти через:  Facebook Google Twitter Vk Yandex Mail.ru

Camp Kill Yourself - Human Drive In Hi-fi - таба, видео

Печатать
Просмотров: 133
E--------------------------------------------------/13-----11--
B--------------------------------------------------------------
G-------------8----------8-10----8-10---8----------------------
D--10--10--11---11-10-11------11------11--11-10-8--------------
A--------------------------------------------------------------
E--------------------------------------------------------------



main riff 4x
E--------------------------------------
B--------------------------------------
G--------------------------------------
D--------------------------------------
A---------4---------7---6---4---6------
E---6-6-4---6-4-6-4---6---6---6---6----


Verse riff 

E-------------------------------------------------------------------
B-------------------------------------------------------------------
G-------------------------------------------------------------------
D-------------------------------------------------------------------
A------------------------------4-6----------------------------------
E--6---6-4-6-4-6-4-6---6-4-6-4------6---6-4-6-4-6-4-6---6-4-6-4-6-4-


chorus
E--------------------------------
B--------------------------------
G--------------------------------
D--------------------------------
A-8--8-8--11-11-----6---8-6---6--
E-6--6-6--9--9--4-4---4-----9----
Добавлено: 01.07.2013
Другие материалы по этой песне:
  • Аккорды и текст

Страница создана 01.07.2013
http://primanota.ru/camp-kill-yourself/human-drive-in-hi-fi-chords.htm
Привет, Гость.
Предлагаем пройти революционный курс по гитаре.
Подарок от PrimaNota.Ru, забирай!