PrimaNota.ru - самый крупный в мире бесплатный архив песенных текстов, аккордов, табулатур и нот


Camp Kill Yourself - Flesh Into Gear - таба, видео

Регистрация Запомнить меня
Войти через:  Facebook Google Twitter Vk Yandex Mail.ru

Camp Kill Yourself - Flesh Into Gear - таба, видео

Печатать
Просмотров: 129
Author/Artist: CKy
Title: Flesh Into Gear
Socksandspoons@hotmail.com
Website:http://ckytabs.cjb.net
Tuning:half step down(Eb Ab Db Gb Bb eb)

"This is an awesome song.It was originally in CKy2k and was known as "Sinking Fast."
But CKy rerecorded it and titled it "Flesh Into Gear" and its on CKy3."
For ALL the CKY tabs goto my website!
Thanks to:Kusha Karimi for parts of the solo.

Intro/verse
-------------------------------------------------------------------------------
-------------------------------------------------------------------------------
-------------------------------------------------------------------------------
----------------6-6-6-6-6-6-6--7p6---------7p6---------------------------------
-2-2-2-2------2-4-4-4-4-4-4-4-----77--4hh7-------------------------------------
-0-0-0-0--2h4------------------------------------------------------------------


Chorus
-------------------------------------------------------------------------------
-------------------------------------------------------------------------------
-------------------------------------------------------------------------------
-7-7-7-7-7-7--9-7---6-6-6-6-6-6--4-2-------------------------------------------
-7-7-7-7-7-7--9-7---6-6-6-6-6-6--4-2-------------------------------------------
-5-5-5-5-5-5--7-5---4-4-4-4-4-4--2-0-------------------------------------------

Solo
-------------------------------------------------------------------------------
-------------------------------------------------------------------------------
--------------------------------------------------4h6--------------------------
-6-6-4h6p4---4---4h6-4-----4-4---4h6p4----4---4h6-----6-6--4h6p4--4---4h6-4----
-4-4-------7---7-------7---2-2---------77---7---------4-4-------7---7-------7--
-------------------------------------------------------------------------------

-----------------------------
-----------------------------
-----------------------------
-4-4-----------2h4---2h4p4---                                                             x2
-2-2-------0h4-----4-------4-
-----------------------------

---------------------------------------------------------------------
---------------------------------------------------------------------
-----------------------------------------------------------4h6-------
-----------2-2--4h6p4---4---4h6-4----4-44--4h6p4---4---4h6-----------
-----------0-0--------7---7-------7--2-22--------7---7---------------
---------------------------------------------------------------------

Then...
-------------------------------------------------------------------------------
-------------------------------------------------------------------------------
-------------------------------------------------4h6v-4------------------------
-6-6--4h6p4---4---4h6-4----4-4--4h6p4----4---4h6--------6-2h4------------------
-4-4--------7---7-------7--2-2--------7----7------------------4p2--------------
------------------------------------------------------------------4p2----------
Then play Chorus.
Добавлено: 30.06.2012
Другие материалы по этой песне:

Страница создана 07.03.2012
http://primanota.ru/camp-kill-yourself/flesh-into-gear-chords.htm
Привет, Гость.
Предлагаем пройти революционный курс по гитаре.
Подарок от PrimaNota.Ru, забирай!