PrimaNota.ru - самый крупный в мире бесплатный архив песенных текстов, аккордов, табулатур и нот


Camp Kill-yourself - Attached At The Hip - таба, видео

Регистрация Запомнить меня
Войти через:  Facebook Google Twitter Vk Yandex Mail.ru

Camp Kill-yourself - Attached At The Hip - таба, видео

Печатать
Просмотров: 101
Band:  Camp Kill Yourself
Song:  Attached at the Hip
Album: Infiltrate Destroy Rebuild
Tabbed by: Graham Bucci

Tuned 1/2 step down (Eb Ab Db gb bb eb)

ok, I think this is all of it, it?s a
pretty easy song but it sounds sweet.
                enjoi.

Intro
[with distortion]
--------------------------------------------------
--------------------------------------------------
-4---------------------4--------------------------
-4----------2----------4----------2-2-------------
-2------------5--------2--------------5-5------X2-
----2-5-2-5-----2-5-------2-5-2-5-----------------

[huge bend]

Verse
--------------------------------------------------------
--------------------------------------------------------
--44--4444----------------------------------------------
--44--4444--X4------------------------------------------
--22--2222--------5555555555-4-2---5555555555-4-2----X2-
--------------------------------------------------------

Main Riff
--------------------------------------------------
--------------------------------------------------
-4---------------------4--------------------------
-4----------2----------4----------2-2-------------
-2------------5--------2--------------5-5------X2-
----2-5-2-5-----2-5-------2-5-2-5-----------------
          You don't need to be so shallow
          Turn your head prepare to follow

Verse
---------------------------------------------------------
---------------------------------------------------------
--44--44-44----------------------------------------------
--44--44-44--x4------------------------------------------
--22--22-22--------5555555555-4-2---5555555555-4-2----X2-
---------------------------------------------------------

Chorus
-----------------------------------------------
-----------------------------------------------
--4------7------2-------------7--6-------------
--4------7------2------4------7--6--------X4---
--2------5------0------4------5--4-------------
-----------------------2-----------------------

Main Riff X2
Verse
Main Riff X2
Chorus
Main Riff
[huge bend and die]


I think that is all.  Just play it by ear.
You?ll be able to figure it out quite easily.

     
Добавлено: 09.11.2013
Вам также может быть интересно:
Другие материалы по этой песне:
  • Аккорды и текст

Страница создана 25.09.2013
http://primanota.ru/camp-kill-yourself-2/attached-at-the-hip-chords.htm
Привет, Гость.
Предлагаем пройти революционный курс по гитаре.
Подарок от PrimaNota.Ru, забирай!