PrimaNota.ru - самый крупный в мире бесплатный архив песенных текстов, аккордов, табулатур и нот


Caminantes - Amor Sin Palabras - бас-таба, видео

Регистрация Запомнить меня
Войти через:  Facebook Google Twitter Vk Yandex Mail.ru

Caminantes - Amor Sin Palabras - бас-таба, видео

Печатать
Просмотров: 83
Amor Sin Palabras.btab
Los Caminantes
TablEdited by Poppamies
Tuning : E A D G 	Time Signature: 4/4

 |   tempo 96    |       |        |       |       |       |        
|3-----------3---3-------2-------|1-----------1---3-------1-------|
|--------------------------------|----------------------------3---|
|--------------------------------|--------------------------------|
|--------------------------------|--------------------------------|

 |       |       |       |        |       |       |       |        
|--------------------------------|------------------------1-------|
|1-----------1-------------------|1-----------1---3---------------|
|----------------1-------1-------|--------------------------------|
|--------------------------------|--------------------------------|

 |       |       |       |        |       |       |       |        
|3-----------3-------------------|3-----------3-------------------|
|----------------3-------3-------|----------------3-------3-------|
|--------------------------------|--------------------------------|
|--------------------------------|--------------------------------|

 |       |       |       |        |       |       |   Como|        
|--------------------------------|--------------------------------|
|1-----------1-------------------|1-----------1-------------------|
|----------------1-------1-------|----------------1-------1-------|
|--------------------------------|--------------------------------|

 puedo demonstrarte vida |        mia     |       |   Es ti        
|--------------------------------|----------------3-------3-------|
|1-----------1-------------------|1-----------1-------------------|
|----------------1-----------1---|--------------------------------|
|--------------------------------|--------------------------------|

 amor tan|imenso....     |        |       |       |       |        
|----------------------------0---|1-----------1-------------------|
|1-----------1---3---------------|----------------1-------1-------|
|--------------------------------|--------------------------------|
|--------------------------------|--------------------------------|

 |       |       |       |        |       |       |       E len-  
|1-----------1---3-----------3---|--------------------------------|
|--------------------------------|1-----------1---0---------------|
|--------------------------------|------------------------3-------|
|--------------------------------|--------------------------------|

 guaje de|todo el|universe...     |       |       |       |        
|--------------------------------|----------------3-------3-------|
|------------------------0-------|1-----------1-------------------|
|1-----------1---3---------------|--------------------------------|
|--------------------------------|--------------------------------|

 |       |       |       |        |       |       |       |        
|--------------------------------|--------------------------------|
|1-----------1-------------------|1-----------1-------------------|
|----------------1-------1-------|----------------1-----------1---|
|--------------------------------|--------------------------------|

 |       |       |       |        |       |       |       |        
|----------------3-------3-------|------------------------0-------|
|1-----------1-------------------|1-----------1---3---------------|
|--------------------------------|--------------------------------|
|--------------------------------|--------------------------------|

 |       |       |       Una      una...  |       |       |        
|1-----------1-------------------|1-----------1---3-----------3---|
|----------------1-------1-------|--------------------------------|
|--------------------------------|--------------------------------|
|--------------------------------|--------------------------------|

 |       |       |       |        |       |       |       |        
|--------------------------------|--------------------------------|
|1-----------1---0---------------|------------------------0-------|
|------------------------3-------|1-----------1---3---------------|
|--------------------------------|--------------------------------|

 |       |       |       |        |       |   Amor|sin pa-|        
|----------------3-------3-------|--------------------------------|
|1-----------1-------------------|1-------------------------------|
|--------------------------------|--------------------------------|
|--------------------------------|--------------------------------|

 labras...       |       |        |       |       |       |        
|3-----------3---3-------1-------|1-----------1---3-----------3---|
|--------------------------------|--------------------------------|
|--------------------------------|--------------------------------|
|--------------------------------|--------------------------------|

 |       |       |       |        |       |       |       |        
|--------------------------------|------------------------1-------|
|1-----------1-------------------|1-----------1---3---------------|
|----------------1-----------1---|--------------------------------|
|--------------------------------|--------------------------------|

 |       |       |       |        |       |       |       |        
|3-----------3-------------------|3-----------3-------------------|
|----------------3-----------3---|----------------3-------3-------|
|--------------------------------|--------------------------------|
|--------------------------------|--------------------------------|

 |       |       |       |        |       |       |       |        
|--------------------------------|------------------------1-------|
|1-----------1-------------------|1-----------1---3---------------|
|----------------1-------1-------|--------------------------------|
|--------------------------------|--------------------------------|

 |       |       |       |        |       |       |       |        
|3-----------3---3-------2-------|1-----------1---3-----------3---|
|--------------------------------|--------------------------------|
|--------------------------------|--------------------------------|
|--------------------------------|--------------------------------|

 |       |       |       |        |       |       |       |        
|--------------------------------|------------------------1-------|
|1-----------1-------------------|1-----------1---3---------------|
|----------------1-------1-------|--------------------------------|
|--------------------------------|--------------------------------|

 |       |       |       |        
|--------------------------------|
|----------and so on....---------|
|--------------------------------|
|--------------------------------|

Transcribe! 6.0 transcription http://www.seventhstring.demon.co.uk/
Created with TablEdit http://www.tabledit.com/
http://www.geocities.com/jani_bjorklund/janis.html?1058405404377



     
Добавлено: 16.10.2013
Другие материалы по этой песне:
  • Аккорды и текст

Страница создана 16.10.2013
http://primanota.ru/caminantes/amor-sin-palabras-chords.htm
Привет, Гость.
Предлагаем пройти революционный курс по гитаре.
Подарок от PrimaNota.Ru, забирай!