PrimaNota.ru - самый крупный в мире бесплатный архив песенных текстов, аккордов, табулатур и нот


Сен-Санс Камиль - Op 40 - Danse Macabre - таба, видео

Регистрация Запомнить меня
Войти через:  Facebook Google Twitter Vk Yandex Mail.ru

Сен-Санс Камиль - Op 40 - Danse Macabre - таба, видео

Печатать
Просмотров: 428
Уроки эстрадного вокала в Санкт-Петербурге
Danse Macabre
A Tone Poem by 
Camille Saint-Saens
1875

Tab By Chris 

[below are the first 65 measures - to be completed soon hopefully]


3/4

   4x
| -------||10=====|========|========|========|
| -------||10=====|========|========|========|
|*-------||11=====|========|========|========|
|*12====-||12====-|12=====-|12=====-|12=====-|
| -------||-------|--------|--------|--------|
| -------||-------|--------|--------|--------|

   4x
| -------||14=====|=======|=======|======-|-----|
| -------||10=====|=======|=======|======-|-----|
|*-------||11=====|=======|=======|======-|-----|
|*12====-||12=====|=======|=======|======-|-----|
| -------||-------|-------|-------|-------|-----|
| -------||-------|-------|-------|-------|-----|


|------|------|------|------|------|------|------|
|------|------|------|------|------|------|------|
|------|------|------|------|------|------|------|
|------|7-----|------|4-----|------|------|------|
|5-----|------|3-----|------|0-----|3-----|6-----|
|------|------|------|------|------|------|------|


|------|------|------|------|------|------|------|------|
|------|------|------|------|------|------|------|----3-|
|8====-|------|8---8-|------|888---|888---|8---8-|--8-2-|
|7====-|7====-|7---7-|7---7-|777-7-|777-7-|7-7-7-|7-7-4-|
|5-----|5====-|------|5---5-|----5-|----5-|--5---|5---5-|
|------|------|------|------|------|------|------|------|

 |   |   |    |   |   |    ssss|   |    |etc|   |
|3---3-6-3-5-|6---5-6-3-6-|563-3-6-3-5-|6---5-6-3-6-|
|0-----------|------------|------------|------------|
|0-----------|------------|------------|------------|
|0-----------|------------|------------|------------|
|------------|------------|------------|------------|
|3-----------|------------|------------|------------|


|4---4-8-4-6-|8---6-8-4-8-|684-4-8-4-6-|8---4-8-6-4-|
|------------|------------|------------|------------|
|------------|------------|------------|------------|
|------------|------------|------------|------------|
|------------|------------|------------|------------|
|------------|------------|------------|------------|


|3-----|3---3-|1---1-|0---0-|------|--0-3-|
|----3-|------|------|------|4---4-|3-----|
|------|--0---|------|------|------|------|
|------|------|--3---|--2---|--1---|------|
|------|------|------|------|------|------|
|----3-|3-----|3-----|3-----|3-----|3-----|


|2-0---|0---0-|2-----|3---3-|1---1-|0---0-|------|--3-6-|5-2---|2---0-|
|----3-|------|----3-|------|------|------|4---4-|3-----|----3-|------|
|------|------|------|--0---|------|------|------|------|------|--2---|
|------|------|0-----|------|--3---|--2---|--1---|------|------|------|
|0-----|0-----|------|------|------|------|------|------|0-----|0-----|
|------|------|------|3-----|3-----|3-----|3-----|3-----|------|------|


|----10-14-10-12-|14---12-14-10-14-|121410-10-14-10-12-|14---12-14-10-14-|
|3---------------|-----------------|-------------------|-----------------|
|----------------|-----------------|-------------------|-----------------|
|0---------------|-----------------|-------------------|-----------------|
|----------------|-----------------|-------------------|-----------------|
|----------------|-----------------|-------------------|-----------------|


|15-------------|-------------|------------|------------|
|16---8-11-8-10-|11---4-8-4-6-|8-----4---3-|4---4-4-4-4-|
|---------------|-------------|----3---3---|------------|
|---------------|-------------|------------|------------|
|---------------|-------------|------------|------------|
|---------------|-------------|------------|------------|


|---------------|-------------|------------|------------|
|3--------------|-------------|------------|------------|
|---------------|-------------|------------|------------|
|---------------|-------------|------------|------------|
|---------------|-------------|------------|------------|
|---------------|-------------|------------|------------|

Добавлено: 31.05.2012
Другие материалы по этой песне:
  • Аккорды и текст

Страница создана 31.05.2012
http://primanota.ru/camille-saint-saens/op-40-danse-macabre-chords.htm
Привет, Гость.
Предлагаем пройти революционный курс по гитаре.
Подарок от PrimaNota.Ru, забирай!