PrimaNota.ru - самый крупный в мире бесплатный архив песенных текстов, аккордов, табулатур и нот


Camel - Rhayader Goes To Town - текст песни, таба, бас-таба, видео

Регистрация Запомнить меня
Войти через:  Facebook Google Twitter Vk Yandex Mail.ru

Camel - Rhayader Goes To Town - текст песни, таба, бас-таба, видео

Печатать
Просмотров: 180
Авторы музыки: Andrew Latimer, Peter Bardens

---------------------------------------------------------------------------------------------------------------
                                          Artist - Camel 
                                         ****************
                                    Song - Rhayader Goes To Town
                                   ******************************
                              Album - The Snow Goose (Re Recorded 2013)   
                             *******************************************
                                       Tabbed By - Ayreon77
                                      **********************
---------------------------------------------------------------------------------------------------------------
Tuning = Standard

p   = Pull Off
h   = Hammer On
b   = Bend
rb  = Release Bend
rbp = Release Bend Pulloff
br  = Bend Release
brp = Bend Release Pulloff
/   = Slide
UB  = Union Bend
PH  = Pinch Harmonic

----------------------------------------
HEAVY CHORDS - Barred Chords
*************
C Bb C Bb
Ab G Ab G   

Scratch pleck down strings

----------------------------------------
00:23
SMALL SOLO
***********
e|----------------------------|-------------|---------------|-------------------------|
B|--------------------b-------|--b--r-------|-------b-------|----------b------b--r----|
G|--------------9-10-10-------|-10----------|-9-10-10-------|-9-10-12-12~~~~-13----12-|
D|-10~~~~~~~~-----------10~~~-|-------10~~~-|---------10~~~-|-------------------------|
A|----------------------------|-------------|---------------|-------------------------|
E|----------------------------|-------------|---------------|-------------------------|
                                                                                        b
                                                  brp                    b             PH      h  p
e|-------|------------|---8---rbp----b--b----|-8-10--8---b-------|-8-10-12-12~~~~~~~-|-12-12-10-12-10-8~~~~~--|
B|-------|--b--b-r----|-8----11--8--11---~~~-|----------11~~~~~~-|-------------------|------------------------|
G|-12-13-|-13------12-|----------------------|-------------------|-------------------|------------------------|
D|-------|------------|----------------------|-------------------|-------------------|------------------------|
A|-------|------------|----------------------|-------------------|-------------------|------------------------|
E|-------|------------|----------------------|-------------------|-------------------|------------------------|

    h  p    h p    h p                  h p                h    
e|-8-10-8--6-8-6--4-6-4--4~~~~-|-4--6--4-6-4-3~~~-|-3--4--4-6-6--4-3-|
B|-----------------------------|------------------|------------------|
G|-----------------------------|------------------|------------------|
D|-----------------------------|------------------|------------------|
A|-----------------------------|------------------|------------------|
E|-----------------------------|------------------|------------------|

01:09
e|-----|---------------|---------------------|-------------------|-6-------------------|-6-------------------|
B|-----|---------------|---------------------|-------------------|-----8---------------|-----8---------------|
G|-----|---------------|---------------------|-----h-p---h--brp--|---8----5--8---------|---8----5--8---------|
D|-----|---------5-----|-------------5-------|-3--3-5-3-3-5-5--3-|--------------5--8-7-|--------------5--8-7-|
A|---s-|-3---6-3---6-6-|-3-3-3---6-3---6-6-3-|-------------------|---------------------|---------------------|
E|-12\-|---3-----------|-------3-------------|-------------------|---------------------|---------------------|


----------------------------------------
CHORDS
*******
Cm G# D Db -- Cm G# D Db C G# A#  

01:50
e|---------------|---------------------|-------------------|
B|---------------|---------------------|-------------------|
G|---------------|---------------------|-----h-p---h--brp--|
D|---------5-----|-------------5-------|-3--3-5-3-3-5-5--3-|
A|-3---6-3---6-6-|-3-3-3---6-3---6-6-3-|-------------------|
E|---3-----------|-------3-------------|-------------------|


01:56
   fast bit.........................................................
    h                                 h
e|-7-8--h-----------------------h--|-7-8--h-----------------------h--|-----h--p----h-brp--|
B|-----7-8--h---h-------h---h--7-8-|-----7-8--h---h-------h---h--7-8-|-9--9-11-9--9-11--9-|
G|---------7-8-4-5--h--4-5-7-8-----|---------7-8-4-5--h--4-5-7-8-----|--------------------|
D|-----------------4-5-------------|-----------------4-5-------------|--------------------|
A|---------------------------------|---------------------------------|--------------------|
E|---------------------------------|---------------------------------|--------------------|
   fast bit.................................................
    h
e|-7-8--h-----------------------h--|---h-----h-----h----h----h---h---h---h----|------------br--|
B|-----7-8--h---h-------h---h--7-8-|-12-13-11-12-10-11-9-10-8-9-7-8-6-7-5-6-6-|-6-8-6--6-8-8-6-|
G|---------7-8-4-5--h--4-5-7-8-----|------------------------------------------|----------------|
D|-----------------4-5-------------|------------------------------------------|----------------|
A|---------------------------------|------------------------------------------|----------------|
E|---------------------------------|------------------------------------------|----------------|



----------------------------------------
CHORDS
*******
Cm G# D Db -- Cm G# D Db C G# A#

----------------------------------------
02:38 
MAIN SOLO
**********
e|--------------|--------------|------------------|-------|---------|------------|-------------------|
B|--------------|---------p----|------------------|-------|---------|------------|-----------------8-|
G|--------------|-8--7---8-7---|------------------|-------|---------|------------|--s--8--10--8-10---|
D|-8~~~~-10~~~~-|------------8-|--s---8---s-------|-------|----p----|---------s--|-5\8---------------|
A|--------------|--------------|-8\10---10\8--6-8-|-6-8-8-|-6-8-6---|-5~~~~~~-\4-|-------------------|
E|--------------|--------------|------------------|-------|-------8-|------------|-------------------|

02:59
e|-----------------------|--------------|------------|--b------rbp---b-8-|
B|-----h-----------------|-------h------|----b-8-----|-11~~~~-11--8-11---|
G|----8-10--8-10--8-10---|----8---10-10-|-8-10-----8-|-------------------|
D|-10------------------8-|-10-----------|------------|-------------------|
A|-----------------------|--------------|------------|-------------------|
E|-----------------------|--------------|------------|-------------------|

                                                                     very fast
e|-------------------------------------------------|--h---------------h-p-------------------|
B|-8-11--11-11-11-8--b-------------------8~~~------|-8-9--8---p------8-9-8---p--------------|
G|------------------10-8-10-10-8--------------8----|--------10-8-----------10-8---p---------|
D|-------------------------------10-8-10--------10-|-------------10-------------10-8---s----|
A|-------------------------------------------------|---------------------------------10\8-6-|
E|-------------------------------------------------|----------------------------------------|

03:20
e|-----------------------------|---------|--------------|------8------------------|
B|-----------------------------|---------|--------------|--b-8-----b--------------|
G|-----------------------------|---------|----8-------8-|-10------10-10-8----10-8-|
D|---------------h--p-s--------|---------|-10---10-10---|-----------------10------|
A|-------6------8-10-8\6-8-6---|---6-8-5-|--------------|-------------------------|
E|-8-6-8----8-6--------------8-|-8-------|--------------|-------------------------|

03:28           b
e|------8--8-8-11---------------|----------------------------------|
B|--b-8------------11~~~~~------|---s----s------b---h---p----------|
G|-10----------------------10-8-|-10\12-/10--8-10--8-10--8---p-----|
D|------------------------------|--------------------------10-8----|
A|------------------------------|-------------------------------10-|
E|------------------------------|----------------------------------|

                                  slight wha wha
e|------------------------------|-------------------------------|-8~~-11-8---s---6--s------|
B|-------------------------10~~-|-7----h------------------------|----------11\8----6\8~~~~-|
G|---------------8----8---------|---7-7-8-10-8---------------p--|--------------------------|
D|------8----------10---10------|--------------10-8------10---8-|--------------------------|
A|-8-10---10-6------------------|-------------------10-8--------|--------------------------|
E|-------------8----------------|-------------------------------|--------------------------|

03:51
e|------------|---------|----------|---------|---------|---------------------------s--brp---brp----|
B|-----s------|---p--s--|--h--p-s--|--h-p-s--|--h-p-s--|------h-------------------6\8----6--8--6-8-|
G|-8-10\12-10-|-12-10\8-|-8-10-8\7-|-7-8-7\5-|-5-7-5\3-|-5---3-5~~~~~~~~~~~~~-5--------------------|
D|------------|---------|----------|---------|---------|---5--------------------5------------------|
A|------------|---------|----------|---------|---------|-------------------------------------------|
E|------------|---------|----------|---------|---------|-------------------------------------------|

                                        s                                b             b
e|--h---h---h---h---h---h---h---h---h--6\8~~~~~~-|-11-10-11-13------s-|-13----|-11-13-13--11-13------S-|
B|-6-8-6-8-6-8-6-8-6-8-6-8-6-8-6-8-6-8-----------|-------------13-13\-|----13-|-----------------13-13\-|
G|-----------------------------------------------|--------------------|-------|------------------------|
D|-----------------------------------------------|--------------------|-------|------------------------|
A|-----------------------------------------------|--------------------|-------|------------------------|
E|-----------------------------------------------|--------------------|-------|------------------------|

04:16
e|-------------|-------------|--------------|--------------|-------------------------------|
B|-------------|-------------|--------------|--------------|-------------------------------|
G|-8-10-8/\/\/-|----7-8-7----|---------8-10-|-8------------|----------------------h---8-8~~|
D|-8-10-8/\/\/-|-10--------8-|----8---------|---10----8-10-|-8-------s-----s-----8-10------|
A|-------------|-------------|-10---10------|------10------|---10-9-8\6---6\8-10-----------|
E|-------------|-------------|--------------|--------------|------------8------------------|


e|----------------|------|
B|---------b------|------|
G|--------10-8-10-|-8----|
D|-10-------------|---10-|
A|----10----------|------|
E|----------------|------|


------------------------------------
04:33
e|--------------|--br---br---b-|-----------|--br---br---b---|-------s----------|
B|--b--r--h--p--|-10---10-9--9-|--b--r-----|-10---10-9--9-8-|---9---\11--------|
G|-10----8-10-8-|--------------|-10----8-8-|----------------|-9---------10---s-|
D|--------------|--------------|-----------|----------------|--------------12\-|
A|--------------|--------------|-----------|----------------|------------------|
E|--------------|--------------|-----------|----------------|------------------|


------------------------------------
04:55
e|---------------|---------------------|-------------|---------------------|
B|---------------|---------------------|-------------|---------------------|
G|---------------|---------------------|-10--7--4----|---------------------|
D|---------5-----|-------------5-------|-12--9--6--6-|------9-12------9-12-|
A|-3---6-3---6-6-|-3-3-3---6-3---6-6-3-|-----------8-|-8-11------8-11------|
E|---3-----------|-------3-------------|-------------|---------------------|X2


   C  C  C     C 
e|---------------|
B|-5--5--5-----5-|
G|-5--5--5-----5-|
D|-5--5--5-----5-|
A|-3--3--3-----3-|
E|---------------|



ENJOY.............
Добавлено: 12.05.2016
Другие материалы по этой песне:

Страница создана 23.02.2012
http://primanota.ru/camel/rhayader-goes-to-town-chords.htm
Привет, Гость.
Предлагаем пройти революционный курс по гитаре.
Подарок от PrimaNota.Ru, забирай!