PrimaNota.ru - самый крупный в мире бесплатный архив песенных текстов, аккордов, табулатур и нот


Camel - Rhayader - текст песни, бас-таба, видео

Регистрация Запомнить меня
Войти через:  Facebook Google Twitter Vk Yandex Mail.ru

Camel - Rhayader - текст песни, бас-таба, видео

Печатать
Просмотров: 79
Авторы музыки: Andrew Latimer, Peter Bardens

-----------------------------------------------------------------------------
                                          Artist - Camel 
                                         ****************
                                         Song - Rhayader
                                        *****************
                             Album - The Snow Goose ((Re Recorded.2013)   
                            ********************************************
                                        Tabbed By - Ayreon77
                                       **********************
-----------------------------------------------------------------------------
Tuning = Standard


00:38
G|----5----8--------------|---5------|-------|-------|-----|             
D|-------6---6------------|--------6-|---6-8-|-5-8-5-|-5---|
A|-3-----------6---6--8-8-|-3---3----|-------|-------|---3-|
E|------------------------|----------|-8-----|-------|-----|X2


00:52
G|-----|---------|-8-------|-----------12-------------|-----------------|
D|-6---|---------|---8-5---|-10~~~--10----10-9----9---|-6-5--------6--5-|
A|-----|---3-5-6-|-------6-|--------------------------|-----8-6-8-------|
E|---4-|-6-------|---------|-------------------7----7-|-----------------|


01:04
G|----5----8--------------|---5------|-------|-------|-----|             
D|-------6---6------------|--------6-|---6-8-|---8-5-|-5---|
A|-3-----------6---6--8-8-|-3---3----|-------|-------|---3-|
E|------------------------|----------|-8-----|-8-----|-----|X2


01:18
G|-----|---------|-8-------|-----------12-------------|-----------------|
D|-6---|---------|---8-5---|-10~~~--10----10-9----9---|-6-5--------6--5-|
A|-----|---3-5-6-|-------6-|--------------------------|-----8-6-8-------|
E|---4-|-6-------|---------|-------------------7----7-|-----------------|


01:30 
Funky Bass                                            simpler version for the rest
G|-------------|---------|------------|------------|  |-------------|-------|----------|------------|
D|-------2-3-5-|-5---5---|-8--8---8---|-7--7-5-----|  |-------2-3-5-|-5---5-|-8--8---8-|-7--7-5-----|
A|-3-3-5-------|---5---5-|------8---8-|--------7-5-|  |-3-3-5-------|---5---|------8---|--------7-5-|
E|-------------|---------|------------|------------|  |-------------|-------|----------|------------|X9


G|---------|
D|-----5-5-|
A|---5-----|
E|-7-------|


02:38
G|----5----8----------------|----5------|-------|-------|
D|-------6---6--------------|---------6-|---6-8-|-5-8-5-|
A|-3-----------6---6--8-8-8-|-3----3----|-------|-------|
E|--------------------------|-----------|-8-----|-------|X2


G|-----|---------|-8-------|-----------12-------------|-----------------|---|
D|-6---|---------|---8-5---|-10~~~--10----10-9----9---|-6-5--------6--5-|-5-|
A|-----|---3-5-6-|-------6-|--------------------------|-----8-6-8-------|---|
E|---4-|-6-------|---------|-------------------7----7-|-----------------|---|



ENJOY............
Добавлено: 13.04.2016
Другие материалы по этой песне:

Страница создана 17.03.2012
http://primanota.ru/camel/rhayader-chords.htm
Привет, Гость.
Предлагаем пройти революционный курс по гитаре.
Подарок от PrimaNota.Ru, забирай!