PrimaNota.ru - самый крупный в мире бесплатный архив песенных текстов, аккордов, табулатур и нот


Camel - Fox Hill - текст песни, таба, видео

Регистрация Запомнить меня
Войти через:  Facebook Google Twitter Vk Yandex Mail.ru

Camel - Fox Hill - текст песни, таба, видео

Печатать
Просмотров: 148
                                          Artist - Camel
                                         ****************
                                         Song - Fox Hill
                                        *****************
                                     Album - A Nod And A Wink
                                    **************************

Intro
Acoustic Chords
****************
G
------------------------------------------
00:08
VERSES 1
*********
G
There's a fox on the hill
and he's standing still,
as if he's trying to hide.

G
My horse is going after him,
he thinks he'll easily catch him
but the Tod is sly.

Chorus
*******
Bm      E              G
   Lazy days and crazy ways,
           Am         G
the sun is high and I'm feelin' fine.
(and so is ol' Dart)

-------------------------------------------
VERSES 2
*********
G
My horse is unconcerned
as he takes a tricky turn
on the heels of the fox.

G
But as we come around,
Mr. Tod is off the ground
smiling down from the rocks.

Chorus
*******
Bm       E             G
   Crazy days and lazy ways,
           Am         G
the sun is nigh and I'm feelin' high.
Am                     D
   (it's only rock and roll)

--------------------------------------------
Keyboards
**********
D


Piano
******
Bm
Well, I'm an artful dodger
         E
said the fox,
                     F#m
they never catch me, no
                        Bm
I lead them all a merry dance 

I see you're on a pleasure run,
       E
out to have a bit of fun...
F#m                          Bm
perhaps you'd like a game of chance


   G               F#m
So may I propose a little game
      Bm               F#m
...if you'll agree.
  G                  F#m   
I wager you'll never catch me! 

       Heavy Guitar = Bm
      *************
Bm  
And in a flash,

the fox flipped his tail,
   F#m
my horse took the bit,
Bm
and the chase was on...


GUITAR SOLO
************
02:18
[-------------b-|-----------------------------------------------------hold-]
[-0-3-0-5-0-3---|-0-3-0-5-0-3---0-3-0-5-0-3---0-3-0-5-0-3---0-3-0-5-0-3----]
[---------------|----------------------------------------------------------]
[---------------|----------------------------------------------------------]
[---------------|----------------------------------------------------------]
[---------------|----------------------------------------------------------]


[-----------|-br---bp----------------------------|-------------------]
[-----------|-5---5--3---------------------------|-----------3----5--]
[-Scratch---|----------4---s--------------p------|----s--2-----4-----]
[----Pleck--|-------------3\2--0--2---0-2--0-----|-0-2\4---4---------]
[-----------|-----------------------2--------2-2-|-------------------]
[-----------|------------------------------------|-------------------]

                                                          
[-brp--------|----------|--s--5-5-5---s----|-brp-------b-]
[-5--3-------|-----3--5-|-5\7--------7\5-3-|-5--3---5--3-]
[------4---2-|-2--------|------------------|------4------]
[--------4---|---4------|------------------|-------------]
[------------|----------|------------------|-------------]
[------------|----------|------------------|-------------]

02:44
[--b-----7----------7-------------------|-----------|---------------]
[-10-~~~~--10-7-b-7----br----7----------|-----------|---------------]
[---------------9------9-7-9--7---7-9-9-|-9-7-------|---------------]
[-------------------------------9-------|-----9--s--|----s----------]
[---------------------------------------|-------8\7-|-5-7\9-5-------]
[---------------------------------------|-----------|---------7-5-7-]

                                                                Whammy Bar
[-------|-------|----------------------------|-------|---------|-------]
[-------|-------|---------------rbp----------|-------|---------|-9-\-\-]
[-------|-------|---------7---9-9--7---9---7-|-------|-----7---|-9-\-\-]
[--s----|-------|--s--7-----9--------9---9---|-9---7-|-7-----9-|-9-\-\-]
[-7\9-5-|-7---5-|-7\9---9--------------------|---9---|---9-----|-------]
[-------|---7---|----------------------------|-------|---------|-------]


[---------|---|----------------------------------]
[---------|-b-|--h-------------------------------]
[-7---9-7-|-9-|-7-9---7--h-----------------------]
[---9-----|---|-----9---7-9---h------------h-----]
[---------|---|--------------7-9-5-7---5--5-7----]
[---------|---|----------------------7--------5--]




SYNTH SOLO
***********
03:17     03:20        03:24
[------b-|----------b-|----------b--]
[-5-0-3--|-3-0-5-0-3--|-3-0-5-0-3---]
[--------|------------|-------------]
[--------|------------|-------------]
[--------|------------|-------------]
[--------|------------|-------------]


03:28
Distorted Chords - Sounds better barred chords
*****************
Bm C C C C Bm E D C


Muted    * means heavy chord
******   ^ Muted
^ *
C C# C
                 *     *   *   *   *   *    *    *
[-----------------s--|---------------------------------]
[--play 4 times--6\5-|-6---7---8---9---10---11---12----]
[----------------6\5-|-6---7---8---9---10---11---12----]
[-^-^--^-^--^-^--6\5-|-6---7---8---9---10---11---12----]
[-3-3--3-3--3-3--4\3-|-4-3-5-3-6-3-7-3-8--3-9--3-10-3--]
[--------------------|---------------------------------]



Synth And guitar in Sync
*************************
04:09               
[-----4-------8-6--]
[---5-------9------]
[-6-------8--------]
[------------------]
[---Play 4 times---]
[------------------]


Chords - Ab C Am C F C G C
*******
04:25
[------------------------------------------------]
[---------------------------------------h--p-----]
[-9-9-9-9-7------------9-9-9-9-7----10-9-10-9-7--]
[-----------10-7-9-10------------10--------------]
[------------------------------------------------]
[------------------------------------------------]

[--------------------------------------]
[--------------------------------------]
[-9-9-9-9-7------------h--p-----7------]
[-----------10-7-9-10-9-10-9-10---10---]
[--------------------------------------]
[------------Play 2 Times--------------]


Chords - F  Bb F  C F
*******
04:40
[---------------------------------------------------h--p-------]
[-10-10-10-10----------------10-10-10-10-------11-10-11-10-----]
[-------------12-10----9-10--------------12-10-------------12--]
[-------------------12-----------------------------------------]
[--------------------------------------------------------------]
[--------------------------------------------------------------]


[--------------------------------------------|--on the 2nd time,----------]
[-10-10-10-10-----------------h--p----s------|---s----- before drum solo--]
[-------------12-10----9-10--9-10-9-10\12-10-|-10\------------------------]
[-------------------12-----------------------|----------------------------]
[--------------------------------------------|----------------------------]
[------------Play 2 Times--------------------|----------------------------]


DRUM SOLO
**********

------------------------------------------------
05:10
VERSES 3
********* 
Bb
Now we're back on the hill
we're going faster still.
and we're nose to nose.

Bb
Well my horse is going faster
but the fox is going past us,
laughing as he goes!

D                 Bb
Crazy daisy, lazy crazy,
       C         Bb
Matching Mole; a toad in the hole;
C                    F
  (it's only fox and foal).

------------------------------------------------

GUITAR SLIDE SOLO
******************
F  C#  F  C#
F  C#  F  C#
Ab Bb F C Bb C Bb C X2    2nd time add Bb C

[slow slide--------------s--------s-------------]
[---s-----10--13--10---14\--9---13\--9---10--13-]
[--5\13-----------------------------------------]
[-----------------------------------------------]
[-----------------------------------------------]
[-----------------------------------------------]


[-----------------s--------s---------------]
[--10--13--10---14\--9---13\--9----s--s----]
[--------------------------------10\12/10--]
[------------------------------------------]
[-------------Play 2 Times-----------------]
[------------------------------------------]


[----------------------|----s-----------------------------|-----------]
[----s--s-------s--s---|--13\10---s----s-------s--------s-|---s-------]
[--10\13\-8---10\12\10-|--------10\5--5\8--8-7-\10-10--9\-|-7-\10-10--]
[----------------------|----------------------------------|-----------]
[----------------------|----------------------------------|-----------]
[----------------------|----------------------------------|-----------]


[------------||-------------------s--------s--------------]
[----s-----s-||--s-10--13--10---14\--9---13\--9---10--13--]
[--10\12-12\-||-5\----------------------------------------]
[------------||-------------------------------------------]
[------------||-------------------------------------------]
[------------||-------------------------------------------]


[-----------------s--------s---------------]
[--10--13--10---14\--9---13\--9----s--s----]
[--------------------------------10\12/10--]
[------------------------------------------]
[-------------Play 2 Times-----------------]
[------------------------------------------]


[----------------------|----s---------------------------|-----------------]
[----s--s-------s--s---|--13\10---s----s-------s--------|---s---s---------]
[--10\13\-8---10\12\10-|--------10\5--5\8--8-7-\10-10-9-|--9\-7-\10-10-9--]
[----------------------|--------------------------------|-----------------]
[----------------------|--------------------------------|-----------------]
[----------------------|--------------------------------|-----------------]


[--------------|--------------------------slow slide--]
[---s---s------|----s------s---------s-----s----------]
[--9\-7-\10-10-|--10\12--12\13-13--12\10--9\----------]
[--------------|--------------------------------------]
[--------------|--------------------------------------]
[--------------|--------------------------------------]


FLUTE SOLO
***********
ACOUSTIC PICKING       07:59
*****************      The Change
[---------------------|----------------------------------------------------]
[---------------3-----|---------------3----------------------------3-------]
[5----3----2------3---|5----3----2------3---5---5---5---5---3---5----3---5-]
[--5----5----3--------|--5----5----3----------7---7---7---7---5--------5---]
[---------------------|----------------------------------------------------]
[Play this till change|----------------------------------------------------]


Acoustic Strumming
*******************
C Gm Eb Bb X4
Ab


Fm         Gm    Cm      Bb
I'm just a happy fox and clearly,
Fm          Gm      Cm      Bb
you're just foal at heart.
Fm        Gm         Cm     Bb
I hope we meet again You've made me
Fm         Bb    Eb
oh, such a happy fox.

Ab Eb - continue till end

Cheerio!


This is an excellent Camel track, not a well known one, but its just typical Camel
Its a long song, let me know if i missed any out. Enjoy...........
Добавлено: 07.07.2013
Другие материалы по этой песне:
  • Аккорды и текст

Страница создана 21.06.2012
http://primanota.ru/camel/fox-hill-chords.htm
Привет, Гость.
Предлагаем пройти революционный курс по гитаре.
Подарок от PrimaNota.Ru, забирай!