PrimaNota.ru - самый крупный в мире бесплатный архив песенных текстов, аккордов, табулатур и нот


Camel - End Of The Day - текст песни, таба, видео

Регистрация Запомнить меня
Войти через:  Facebook Google Twitter Vk Yandex Mail.ru

Camel - End Of The Day - текст песни, таба, видео

Печатать
Просмотров: 153
Уроки эстрадного вокала в Санкт-Петербурге
                                        Artist - Camel
                                       ----------------
                                    Song - End of the Day
                                   ----------------------
                                  Album - Harbour of Tears
                                 --------------------------
                                  
 
  Am                                          G            Am
                    Searching For Fragments Of Old Yesterday
[------------3----|------------3----------3-|----------3-|----------3-----]
[------1----------|------1-----------1------|--------0---|-----1----------]
[---------0-------|---------0-----------0---|--0---------|-------0--------]
[---2-------------|----2-----------2--------|------0-----|---2------------]
[-0---------------|--0-----------0----------|------------|-0--------------]
[--Play 8 Times---|-------------------------|----3-------|--Play 4 Times--]

  Am                        G                C
 I Stand At The Edge    Of My Childhood To Find
[------------3----------3-|----------3--|----------3-----]
[------1-----------1------|--------0----|------1---------]
[---------0-----------0---|--0----------|--------0-------]
[---2------------2--------|------0------|----2-----------]
[-0------------0----------|-------------|--3-------------]
[-------------------------|----3--------|--Play 4 Times--]

   F               Em                 Am                 F
 I Long  For  The  Shadows           That Danced at the  End of    the  Day
[-----------------|-----------------|----------0-----------------------]
[--------------1--|--------------0--|--------1----------------------1--]
[-----------2-----|-----------0-----|------2---------------------2-----]
[--------3--------|--------2--------|----2--------------------3--------]
[-----3-----------|-----2-----------|--0-------------------3-----------]
[--1--------------|--0--------------|-------------------1--------------]

  C                                     
[-----------3---|--3--]
[------1--------|--1--]
[--------0------|--0--]
[----2----------|--2--]
[--3------------|--3--]
[--Play 3 Times-|-----]

 
12 String Acoustic                        Flute
[--10-----8-----6-----3--|-----3--3--3----|----]
[--11-----8-----6-----3--|-----3--3-------|----]
[--10-----7-----7-----3--|-----0--0-------|----]
[--0------0-----0-----0--|---2------------|----]
[------------------------|--3-------------|----]
[------------------------|-Play 6 Times---|----]


   F                C               F                C
[-------1--1--1--|------3--3--3--|-------1--1--1--|------3--3--3--]
[-------1--1-----|------3--3-----|-------1--1-----|------3--3-----]
[----2--2--2-----|------0--0-----|----2--2--2-----|------0--0-----]
[--3-------------|----2----------|--3-------------|----2----------]
[----------------|--3------------|----------------|--3------------]
[----------------|-Play 4 Times--|----------------|-Play 4 Times--]


  Em                          Cm             Gm
[--------0-----------0------|--------3------|--------3-------]
[------0---0-------0---0----|------4---4----|------3---3-----]
[----0-------0---0-------0--|----5-------5--|----3-------3---]
[--2-----------2------------|--5------------|--5-------------]
[---------------------------|---------------|----------------]
[---------------------------|---------------|----------------]


                        Dm
[--6---5--6---5---3----|--1---3------5--]
[--6---6------6---4----|--3---3---------]
[--5---5------5---3----|--2---2---------]
[----------------------|------0---------]
[----Play 2 Times------|----------------]
[----------------------|----------------]

              
Guitar Solo
 Gm                Bb             Cm              F
[------3--3-3----|------1--1--1--|------3--3--3--|------1--1--1--]
[------3--3------|------3--3-----|------4--4-----|------1--1-----]
[----3-----------|------3--------|------5--5-----|------2--2-----]
[--5-------------|----3----------|----5----------|------3--3-----]
[----------------|--1------------|--3------------|----3----------]
[--Play 5 Times--|---------------|-Play 3 Times--|--1------------]
|                                                                |      
|Guitar Solo                                                     |
[--------|-------------------|--------------------h--p-----------]
[--------|-------------------|-------13------15-13-15-13---------]
[---12---|----12-------------|-14-15----12---------------15-14---]
[-Fade---|-------------------|-----------------------------------]
[-In Vol-|---Hold The Note---|-----------------------------------]
[--Hold--|-------------------|-----------------------------------]


 Gm              Bb             Cm              F
[------3--3-3--|------1--1--1--|------3--3--3--|------1--1--1--]
[------3--3----|------3--3-----|------4--4-----|------1--1-----]
[----3---------|------3--------|------5--5-----|------2--2-----]
[--5-----------|----3----------|----5----------|------3--3-----]
[--------------|--1------------|--3------------|----3----------]
[--------------|---------------|-Play 3 Times--|--1------------]
|
|Guitar Solo                                   
[----------------|-----------------------------h--p------------------------]
[---h--p---------|------------b--13-------15-13-15-13----------h--p--------]
[-12-14-12-10-12-|-12-------14-------12---------------15-14--12-14-12-10-12]
[----------------|---------------------------------------------------------]
[----------------|---------------------------------------------------------]
[----------------|---------------------------------------------------------]


  Gm    F   Gm  F  Gm  F Gm F Gm
[--3----1--]
[--3----1--]
[--3----2--]
[--5----3--]
[--5----3--]
[--3----1--]

Great Camel Tune Enjoy..........
Добавлено: 20.06.2013
Другие материалы по этой песне:
  • Аккорды и текст

Страница создана 12.05.2012
http://primanota.ru/camel/end-of-the-day-chords.htm
Привет, Гость.
Предлагаем пройти революционный курс по гитаре.
Подарок от PrimaNota.Ru, забирай!