PrimaNota.ru - самый крупный в мире бесплатный архив песенных текстов, аккордов, табулатур и нот


Camel - Drafted - аккорды и текст, видео

Регистрация Запомнить меня
Войти через:  Facebook Google Twitter Vk Yandex Mail.ru

Camel - Drafted - аккорды и текст, видео

Печатать
Просмотров: 124
Уроки эстрадного вокала в Санкт-Петербурге
Drafted
Camel
---------------------------------------------------------------------------------------------------------------
                                          Artist - Camel 
                                         ****************
                                          Song - Drafted
                                         ****************
                                        Album - Nude (1981)    
                                      *********************
                                       Tabbed By - Ayreon77
                                      **********************
---------------------------------------------------------------------------------------------------------------
Tuning = Standard


INTRO - PIANO
******  ******

-----------------------------------
VERSE 1
********
G    D      C    G
In reply to your request,
D      Em
please find
         D
I hereby protest.
G      D        C         G
To the ways and means you use
D   Em
you know 
         D
I cannot refuse.


-----------------------------------
CHORUS
*******
        C         Em          
So I'll take this vow
   C    Em
of Loyalty.
Am            C
Fight for the right,
         D
You have said,
      G
To be free.


-----------------------------------
01:22
DOUBLE SOLO
************
  GUITAR 1           h p                                               h p
e|-7----s---|-7-8---7-8-7-|-5-7---|------7-----s---|-7----s---|-7-8---7-8-7-|-5-7---|------7-----s---|
B|---8-8\10-|-------------|-----8-|-8-10----8-8\10-|---8-8\10-|-------------|-----8-|-8-10----8-8\10-|
G|----------|-------------|-------|----------------|----------|-------------|-------|----------------|
D|----------|-------------|-------|----------------|----------|-------------|-------|----------------|
A|----------|-------------|-------|----------------|----------|-------------|-------|----------------|
E|----------|-------------|-------|----------------|----------|-------------|-------|----------------|
 |                                                                                                   |
 |GUITAR 2                                                                                           |
e|-------------------------------------------------|----------|-------------|-------|----------------|
B|-------------------------------------------------|----------|----h---h-p--|-------|----------------|
G|-------------------------------------------------|-4----s---|-4-4-5-4-5-4-|-2-4---|---2-4------s---|
D|-------------------------------------------------|---5-5\7--|-------------|-----5-|-5-------5-5\7--|
A|-------------------------------------------------|----------|-------------|-------|----------------|
E|-------------------------------------------------|----------|-------------|-------|----------------|


-----------------------------------
01:51
SOLO
*****                                                h p 
e|---p------|-b--r--b--r------|-----s----|-7-7-8-7--7-8-7----s-|--b---rb-------b----------|
B|-10-8-7-8-|-7-----7-----5---|-5-7-\8-8-|----------------10-\-|-10--10--8-8--10----------|
G|----------|---------------7-|----------|---------------------|---------------b----------|
D|----------|-----------------|----------|---------------------|---------------5-Guitar 2-|
A|----------|-----------------|----------|---------------------|--------------------------|
E|----------|-----------------|----------|---------------------|--------------------------|

                                      s                                        p
e|-b--r----h--7-br---|-------|-7-8-7-8\10----|--b---rb-----|------7---|-12-10-8-7-7-|
B|-7---5--7-8---8--7-|-5-7-8-|------------10-|-10--10--8-8-|-8-10---8-|-------------|
G|-------------------|-------|---------------|-------------|----------|-------------|
D|-------------------|-------|---------------|-------------|----------|-------------|
A|-------------------|-------|---------------|-------------|----------|-------------|
E|-------------------|-------|---------------|-------------|----------|-------------|


-----------------------------------
VERSE 2
********
G         D        C       G
When this time has run its course,
D Em
I must
             D
Live without remorse.
G       D         C        G
For the deeds I'm bound to do,
D Em
I know
                     D
it's all the same to you.


-----------------------------------
CHORUS
*******
      C        Em
But I won't forget
    C   Em
the memory
Am       C
Taking a life,
      D
for a life
      G
to be free.


-----------------------------------
03:11
SLIDE SOLO
***********
e|--s------s----s---------s-s-------|---s---s--------s-----s---------|---s---s--------s-----s----|
B|-8\12--12\-8-8\10--10--8/10\-8~~~-|-12\8-8\10--10-8\10-10\12-12~~~-|-12\8-8\10--10-8\10-/-8~~~-|
G|----------------------------------|--------------------------------|---------------------------|
D|----------------------------------|--------------------------------|---------------------------|
A|----------------------------------|--------------------------------|---------------------------|
E|----------------------------------|--------------------------------|---------------------------|


e|---s---s----------s--s------|---s--s---s--------s----s-----|---s---s--------s------s---------|
B|-12\8-8\10--10-10-\15/12~~~-|-10\12/8-8\10--10-8\10-/-8~~~-|-12\8-8\10--10-8\10--10\12-12~~~-|
G|----------------------------|------------------------------|---------------------------------|
D|----------------------------|------------------------------|---------------------------------|
A|----------------------------|------------------------------|---------------------------------|
E|----------------------------|------------------------------|---------------------------------|

                               slow........
e|---s---s------s--s----s-----|---s---s---------s---s--s---|
B|-12\8-8\10--10\12/10-/-8~~~-|-12\8-8\10--10--8\10-/15\12-|
G|----------------------------|----------------------------|
D|----------------------------|----------------------------|
A|----------------------------|----------------------------|
E|----------------------------|----------------------------|



ENJOY..............
Добавлено: 07.11.2015
Другие материалы по этой песне:

Страница создана 08.03.2012
http://primanota.ru/camel/drafted-chords.htm
Привет, Гость.
Предлагаем пройти революционный курс по гитаре.
Подарок от PrimaNota.Ru, забирай!