PrimaNota.ru - самый крупный в мире бесплатный архив песенных текстов, аккордов, табулатур и нот


Camel - Curiosity - текст песни, таба, видео

Регистрация Запомнить меня
Войти через:  Facebook Google Twitter Vk Yandex Mail.ru

Camel - Curiosity - текст песни, таба, видео

Печатать
Просмотров: 194
                                          Artist - Camel
                                         ****************
                                         Song - Curiosity
                                        ******************
                                          Album - Camel
                                         ***************
                                       Tabbed By - Ayreon77
                                      **********************


Bass Intro
***********
-------------------------------------------

Clean Guitar
00:08                                    
[-----------------|----------|----------]
[-15----15--------|----------|----------] 
[-----------15-14-|-15-14-12-|-14-15-12-]  
[-----------------|----------|----------]  
[-----------------|----------|----------] 
[-----------------|----------|----------]X2


00:41
[-----------------------|---------------------------]
[-----------------------|---------------------------]
[---------s-------------|--------s--s--s--------h---]
[-----7-8/10-8-7----8---|-----7-8/10/12/10-8-8-8-10-]
[-10-------------10---8-|-10------------------------]
[-----------------------|---------------------------]


[----------------------------|---------------------------]
[----------------------------|---------------------------]
[--------s----h--p-s---------|--------s--s--s--------h---]
[-----7-8/10-8-10-8/7----8---|-----7-8/10/12/10-8-8-8-10-]
[-10------------------10---8-|-10------------------------]
[----------------------------|---------------------------]


-------------------------------------------
VERSE 1                    [-----------------|-------------]
********                   [-----------------|-------------]
Sail, sail away,           [------7-10-7-----|------7-8----]
There you go.              [----8--------8-7-|-8-10-----10-]
Why not let me come along, [-10--------------|-------------]
I won't tell no one.       [-----------------|-------------]X2


-------------------------------------------
Small Solo
***********
01:10
[-----------------------|-------------h--p------]
[-------------h--p------|-------15-13--15-13----]
[-12----15-14--15-14-12-|-15-12--------------15-]
[----12-----------------|-----------------------]
[-----------------------|-----------------------]
[-----------------------|-----------------------]


-------------------------------------------
VERSE 2                       [-----------------|-------------]
********                      [-----------------|-------------]
Now our bodies have entwined, [------7-10-7-----|------7-8----]
Touch me with your mind.      [----8--------8-7-|-8-10-----10-]
Your dreams are a mystery,    [-10--------------|-------------]
Please share them with me.    [-----------------|-------------]X2



-------------------------------------------
CHORUS
*******
Curiosity is killing me,
I just got to know.
Curiosity is killing me,
I just got to know 

Play this with the CHORUS
[-----------------------|-------------|-----------------------|-----------]
[-----------------------|--------h----|-----------------------|-----------]
[-----------------------|-----3-3-5---|-----------------------|-----3-----]
[-----------------------|-3-5-------5-|-----------------------|-3-5---3-5-]
[-10-10-8-8-7--8-10-----|-------------|-10-10-8-8-7--8-10-----|-----------]
[-------------------6-8-|-------------|-------------------6-8-|-----------]



-------------------------------------------
BRIDGE
*******
Where, tell me where,
Where are you sailing.


-------------------------------------------
02:01 
GUITAR SOLO
************

[-b--b---b---h-p--------|--------3--p-------------|-----3---b-b-]
[-8--8---8--6-8-6-----6-|---b-b----6-3--brp---b---|-b-3---3-6-6-]
[-----------------7-7---|-5-------------5--3--5-3-|-5-----------]
[-----------------------|-------------------------|-------------]
[-----------------------|-------------------------|-------------]
[-----------------------|-------------------------|-------------]

                          Wha Wha pedal
[-3--p--6--s--|-3-------------------|-----------------]
[---6-3---6/8-|---6--br--h-p-p------|--h-p-p----------]
[-------------|------3--2-3-2-0-2-3-|-2-3-2-0------s--]
[-------------|---------------------|---------3-5-5/8-]
[-------------|---------------------|-----------------]
[-------------|---------------------|-----------------]


-------------------------------------------
Clear Guitar
02:16
[---------------------]
[---------------------]
[---------------------]
[--s--s-s--s-s--s-s---]
[-8/10/8/10/8/10/8/10-]
[---------------------]X4


-------------------------------------------
ORGAN SOLO
***********
02:23
-------------------------------------------

Clear Guitar
02:38
[---------------------]
[---------------------]
[---------------------]
[--s--s-s--s-s--s-s---]
[-8/10/8/10/8/10/8/10-]
[---------------------]X4


-------------------------------------------
CLEAN GUITAR SOLO
******************

[---------------------------------------------]
[---------------------------------------------]
[-12-10---------------------------------10-11-]
[-------12-11-10-------------8-9-10--12-------]
[----------------13--8-9-10-------------------]
[---------------------------------------------]


-------------------------------------------
02:49        Guitar Chords
ORGAN SOLO - Gm Eb C Gm
***********
03:00
  TRILL.................
[-----------------------]
[--h-p-h-p--------------]
[-2-3-2-3-2-------------]
[-----------------------]
[-----------------------]
[-----------------------]


-------------------------------------------
03:45
CLEAN GUITAR SOLO
******************

[---------------------------------------------]
[---------------------------------------------]
[-12-10---------------------------------10-11-]
[-------12-11-10-------------8-9-10--12-------]
[----------------13--8-9-10-------------------]
[---------------------------------------------]


-------------------------------------------
JAZZ SOLO
**********

[-------------|------------|----------------------------]
[----br-br--s-|------------|----------------------------]
[-7--7--7--7/-|----br-br---|----br-br-------s------s-s--]
[-------------|-8--8--8--8-|-7--7--7--7-5--5/7-5--5/7/5-]
[-------------|------------|---------------5/7-5--5/7/5-]
[-------------|------------|----------------------------]


[-------------------|---h--p---------------------------]
[----------------13-|-10-13-10------------s------------]
[---------h---10----|----------10----10-12/14-10-12----]
[---h---10-12-------|-------------12----------------13-]
[-10-12-------------|----------------------------------]
[-------------------|----------------------------------]

                                            s
[-----------------s--------------------10-11/13-10-------]   |this bit
[-11--10-11-----15/16-15-13--11-13-13--------------13-11-]   |is not 100%.
[-----------12-------------------------------------------]   |it's just too 
[--------------------------------------------------------]   |hard to  
[--------------------------------------------------------]   |figure out if 
[--------------------------------------------------------]   |anyone can  
                                                             |get it
                                        |--------------------|let me know?
[---h--p---------|---h--p---------|---------------------------------------]
[-10-11-10----10-|-10-11-10----10-|-11-11---------------------------------]
[----------12----|----------12----|------11-----h-p---------------h-p-----]
[----------------|----------------|--------7-8-7-8-7----7-8-10-8-7-8-7----]
[----------------|----------------|------------------10----------------10-]
[----------------|----------------|---------------------------------------]


[--------------------------------|-----------------------------]
[------------------s-------------|-----------------------------]
[-----------s----17/19-17--15----|----------------s------------]
[-------8-12/17---------------17-|----14-15-14--15/17-15-14-12-]
[-6-10---------------------------|-15--------------------------]
[--------------------------------|-----------------------------]


-------------------------------------------
04:30
CLEAN GUITAR SOLO
******************

[---------------------------------------------]
[---------------------------------------------]
[-12-10---------------------------------10-11-]
[-------12-11-10-------------8-9-10--12-------]
[----------------13--8-9-10-------------------]
[---------------------------------------------]


-------------------------------------------
04:33
[----------------------------------------|  |----------------------------]
[---p-----p-----p-----p------11---p------|  |---p-----p-----p-----p------]
[-12-10-12-10-12-10-12-10-12----12-10----|  |-12-10-12-10-12-10-12-10-12-]
[-------------------------------------12-|  |----------------------------]
[----------------------------------------|  |----------------------------]
[----------------------------------------|X3|----------------------------]

04:44
[-------------------------------------------------------------------]
[-15-14-13-----brbrbr---brbrbr---brbrbr---brbrbr----brbrbr---brbrbr-]
[----------15-14-------14-------14-------14--------14-------14------]
[-------------------------------------------------------------------]
[-------------------------------------------------------------------]
[-------------------------------------------------------------------]


-------------------------------------------
05:56
  TRILL.................
[-----------------------]
[--h-p-h-p--------------]
[-2-3-2-3-2-------------]
[-----------------------]
[-----------------------]
[-----------------------]


-------------------------------------------
05:00
[-----------------------|---------------------------]
[-----------------------|---------------------------]
[---------s-------------|--------s--s--s--------h---]
[-----7-8/10-8-7----8---|-----7-8/10/12/10-8-8-8-10-]
[-10-------------10---8-|-10------------------------]
[-----------------------|---------------------------]


[----------------------------|---------------------------]
[----------------------------|---------------------------]
[--------s----h--p-s---------|--------s--s--s--------h---]
[-----7-8/10-8-10-8/7----8---|-----7-8/10/12/10-8-8-8-10-]
[-10------------------10---8-|-10------------------------]
[----------------------------|---------------------------]


-------------------------------------------
VERSE 1                    [-----------------|-------------]
********                   [-----------------|-------------]
Sail, sail away,           [------7-10-7-----|------7-8----]
There you go.              [----8--------8-7-|-8-10-----10-]
Why not let me come along, [-10--------------|-------------]
I won't tell no one.       [-----------------|-------------]X2

-------------------------------------------

                 [-----------]
Sail, sail away, [-----------]
Sail, sail away, [------7-10-]
Sail, sail away, [----8------]
Sail, sail away, [-10--------]
                 [-----------]X4

-----------------
Gm Gm Gm



Nice Camel Tune, Some easy parts, some hard. Hope someone finds it useful
Enjoy....................
Добавлено: 10.11.2013
Другие материалы по этой песне:
  • Аккорды и текст

Страница создана 18.05.2012
http://primanota.ru/camel/curiosity-chords.htm
Привет, Гость.
Предлагаем пройти революционный курс по гитаре.
Подарок от PrimaNota.Ru, забирай!