PrimaNota.ru - самый крупный в мире бесплатный архив песенных текстов, аккордов, табулатур и нот


Cambriana - The Sad Facts - таба, видео

Регистрация Запомнить меня
Войти через:  Facebook Google Twitter Vk Yandex Mail.ru

Cambriana - The Sad Facts - таба, видео

Печатать
Просмотров: 37
Artist: Cambriana
Song: The Sad Facts
Album: House of Tolerance
Tabbed by: gustavoaraujo999@hotmail.com

[Part 1]
e|-----|-----|-----|-----|
B|--9--|--5--|--7--|-----|
G|--9--|--6--|--8--|--4--|
D|--9--|--6--|--8--|--4--|
A|--7--|--4--|--6--|--6--|
E|-----|-----|-----|-----|

[Part 2]
e|-----------------------------------------------------------|
B|---------------------------17-16-----16----17--------------|
G|--16-16-13--------16-16-13--------------17-----------------|
D|-----------13---------------------------------17-----------|
A|-----------------------------------------------------------|
E|-----------------------------------------------------------|

[Part 2]
e|--------------------------------------------------------------------|
B|--------------------------------------------------------------------|
G|--------------------------------------------------------------------|
D|-13131313131313131313131313131313-1111111111111111-1313131313131313-|
A|--------------------------------------------------------------------|
E|--------------------------------------------------------------------|

e|--------------------------------------------------------------------|
B|----------------------------------1414141414141414-10101010101010---|
G|-11111111111111111111111111111111-----------------------------------|
D|--------------------------------------------------------------------|
A|--------------------------------------------------------------------|
E|--------------------------------------------------------------------|

[Part 3]
e|------------------|------------------|------------------|------------------|
B|------------------|------------------|------------------|------------------|
G|-/11-8--/11-8-6-8-|-/11-8--/11-8-6-8-|-/11-8--/13-8-6-8-|-/11-8--/16-8-6-8-|
D|------------------|------------------|------------------|------------------|
A|------------------|------------------|------------------|------------------|
E|------------------|------------------|------------------|------------------|

e|------------------|------------------|------------------|--------------------|
B|------------------|------------------|------------------|--------------------|
G|-/11-8--/11-8-6-8-|-/11-8--/11-8-6-8-|-/11-8--/13-8-6-8-|-/11-8--/16-8-6-8---|
D|------------------|------------------|------------------|------------------9-|
A|------------------|------------------|------------------|--------------------|
E|------------------|------------------|------------------|--------------------|


e|------------------|------------------|------------------|------------------|
B|------------------|------------------|------------------|------------------|
G|-/11-8--/11-8-6-8-|-/11-8--/11-8-6-8-|-/11-8--/13-8-6-8-|-/16-8-/11--8-6-8-|
D|------------------|------------------|------------------|------------------|
A|------------------|------------------|------------------|------------------|
E|------------------|------------------|------------------|------------------|


e|------------------|------------------|------------------|------------------|
B|------------------|------------------|------------------|------------------|
G|-/11-8--/11-8-6-8-|-/11-8--/11-8-6-8-|-/9--8--/9--8-6-8-|-/11-8--/16-8-6-8-|
D|------------------|------------------|------------------|------------------|
A|------------------|------------------|------------------|------------------|
E|------------------|------------------|------------------|------------------|
Добавлено: 06.04.2016
Вам также может быть интересно:
Другие материалы по этой песне:
  • Аккорды и текст

Страница создана 06.04.2016
http://primanota.ru/cambriana/sad-facts-chords.htm
Привет, Гость.
Предлагаем пройти революционный курс по гитаре.
Подарок от PrimaNota.Ru, забирай!