PrimaNota.ru - самый крупный в мире бесплатный архив песенных текстов, аккордов, табулатур и нот


Cambriana - 47 Daughters - таба, бас-таба, видео

Регистрация Запомнить меня
Войти через:  Facebook Google Twitter Vk Yandex Mail.ru

Cambriana - 47 Daughters - таба, бас-таба, видео

Печатать
Просмотров: 54
Artist: Cambriana
Song: 47 Daughters 
Album: Worker
Tabbed by: gustavoaraujo999@hotmail.com
Tuning: Standard (EADGBE)


[Part 1]
e|--------------------------------------------------------|
B|-66666666-66668888-------------------66666666-----------|
G|-77777777-77771010-77777777-77775555-55555555-333333333-|
D|-77777777-77771010-88888888-88887777-33333333-555555555-|
A|-55555555-55558888-88888888-88887777----------555555555-|
E|-------------------66666666-66665555----------333333333-|


[Part 2]
e|-------------------------------------------------------------|
B|-------------------------------------------------------------|
G|--------------------------------5----------------------------|
D|---------------7------------------7--------------------------|
A|-----------------------8-7--x--------------------------------|
E|-------------------------------------------------------------|

e|-------------------------------------------------------------|
B|-------------13----------------------------------------------|
G|--7-2///14------12------14h15p14-14-----14-------------------|
D|-------------------------------------------------------------|
A|-------------------------------------------------------------|
E|-------------------------------------------------------------|
 
[Part 3]
e|-x--13--------13--------13--------13--------13--------|
B|-------11-10-----11-10-----11-10-----11-10-----11-10--|
G|------------------------------------------------------|
D|------------------------------------------------------|
A|------------------------------------------------------|
E|------------------------------------------------------|

e|-13--------13--------13--------13--------17-13--------------|
B|----11-10-----13-10-----13--------13-----------13-----------|
G|---------------------------14--------14-----------14--------|
D|------------------------------------------------------------|
A|------------------------------------------------------------|
E|------------------------------------------------------------|

e|-17---------17---------17---------17-------------------------|
B|----15---------15---------15---------15----------------------|
G|-------14---------14---------14---------14-------------------|
D|-------------------------------------------------------------|
A|-------------------------------------------------------------|
E|-------------------------------------------------------------|




[Part 4]
e|-------------------------|-------------------------|
B|-------------------------|-------------------------|
G|----------12-14-12-------|----------12-14-12-------|
D|-12-14-15----------15-14-|-12-14-15----------15-14-|
A|-------------------------|-------------------------|
E|-------------------------|-------------------------|

e|-------------------------|-------------------------|
B|-------------------------|-------------------------|
G|----------12-15-12-------|----------12-15-12-------|
D|-12-14-15----------15-14-|-12-14-15----------15-14-|
A|-------------------------|-------------------------|
E|-------------------------|-------------------------|

e|-------------------------|-------------------------|
B|-------------15----------|-------------15----------|
G|-------12-14----14-12----|-------12-14----14-12----|
D|-12-14----------------15-|-12-14----------------15-|
A|-------------------------|-------------------------|
E|-------------------------|-------------------------|

e|-------------------------|-------------------------|
B|-------------------------|-------------------------|
G|----------9--10-9--------|----------9--10-9--------|
D|----10-12----------12-10-|----10-12----------12-10-|
A|-12----------------------|-12----------------------|
E|-------------------------|-------------------------|

Добавлено: 06.04.2016
Вам также может быть интересно:
Другие материалы по этой песне:
  • Аккорды и текст

Страница создана 08.12.2015
http://primanota.ru/cambriana/47-daughters-chords.htm
Привет, Гость.
Предлагаем пройти революционный курс по гитаре.
Подарок от PrimaNota.Ru, забирай!