PrimaNota.ru - самый крупный в мире бесплатный архив песенных текстов, аккордов, табулатур и нот


Calvin Harris - Awooga - таба, видео

Регистрация Запомнить меня
Войти через:  Facebook Google Twitter Vk Yandex Mail.ru

Calvin Harris - Awooga - таба, видео

Печатать
Просмотров: 158
Уроки эстрадного вокала в Санкт-Петербурге
Авторы: Adam Wiles

Awooga main melody
This is repeated throughout the entire song.


|------12-13-12--10-8--|
|-10-------------------|
|----------------------|
|----------------------|
|----------------------|
|----------------------|

|------12-10-12--------|
|-10-------------12-13-|
|----------------------|
|----------------------|
|----------------------|
|----------------------|

|------12-13-12--10-8--|
|-10-------------------|
|----------------------|
|----------------------|
|----------------------|
|----------------------|

|------8--10-8---7-8---|
|-8--------------------|
|----------------------|
|----------------------|
|----------------------|
|----------------------|
Добавлено: 22.03.2016
Другие материалы по этой песне:
  • Аккорды и текст

Страница создана 22.03.2016
http://primanota.ru/calvin-harris/awooga-chords.htm
Привет, Гость.
Предлагаем пройти революционный курс по гитаре.
Подарок от PrimaNota.Ru, забирай!