PrimaNota.ru - самый крупный в мире бесплатный архив песенных текстов, аккордов, табулатур и нот


Calvary Kids - Party Like A Rockstar - таба, видео

Регистрация Запомнить меня
Войти через:  Facebook Google Twitter Vk Yandex Mail.ru

Calvary Kids - Party Like A Rockstar - таба, видео

Печатать
Просмотров: 119
Tab For Party Like A Rockstar
Pm - Palm Mute
Tuning : Standard EADGBe

e-----------------------------------|
B-----------------------------------|
G-----------------4-4-4-4-4-4-4-6---|
D-4Pm-4Pm-6Pm-7Pm-------------------|
A-----------------------------------|
E-----------------------------------|

e-----------------------------------|
B-----------------------------------|
G-----------------6-6-6-6-4-4---4---|
D-4Pm-4Pm-6Pm-7Pm-------------6-----|
A-----------------------------------|
E-----------------------------------|

e-10-9-----9-10-7-9----7------------|
B-------------------10---9-10-------|
G-----------------------------------|
D-----------------------------------|
A-----------------------------------|
E-----------------------------------|
Добавлено: 06.07.2012
Другие материалы по этой песне:
  • Аккорды и текст

Страница создана 06.07.2012
http://primanota.ru/calvary-kids/party-like-a-rockstar-chords.htm
Привет, Гость.
Предлагаем пройти революционный курс по гитаре.
Подарок от PrimaNota.Ru, забирай!