PrimaNota.ru - самый крупный в мире бесплатный архив песенных текстов, аккордов, табулатур и нот


Callejon - Snake Mountain - таба, видео

Регистрация Запомнить меня
Войти через:  Facebook Google Twitter Vk Yandex Mail.ru

Callejon - Snake Mountain - таба, видео

Печатать
Просмотров: 156
Callejón - Snake Mountain
www.callejon.de
by fcore


Bei der Macht von Greyskull..
1x

D |------------|
A |------------|
F |------------|
C |--4----4----|
G |--4----4----|
C |--4----4----|


...Ich habe die Kraft...
1x

D |--------------------------------------------------------------------|
A |--------------------------------------------------------------------|
F |--------------------------------------------------------------------|
C |--4-4-4-4--12-12-12-12--9-9-9-9--7-7-7-7--5-5-5-5--7-7-7-7--4-4-4-4-|
G |--------------------------------------------------------------------|
C |--------------------------------------------------------------------|


4x

D |--------------------------------------------------------------|
A |--------------------------------------------------------------|
F |--------------------------------------------------------------|
C |--4-4-4-4-4-4-4-4--7-7-7-7--8-8-8-8--10-10-10-10--11-11-11-11-|
G |--4-4-4-4-4-4-4-4---------------------------------------------|
C |--4-4-4-4-4-4-4-4---------------------------------------------|
     . . . . . . . .

D |---------------------------------|
A |---------------------------------|
F |---------------------------------|
C |--10-10-10-10--8-8-8-8--7-7-7-7--|
G |---------------------------------|
C |---------------------------------|


4x

D |-------------------------------|
A |-------------------------------|
F |-------------------------------|
C |-------------------------------|
G |-------------------12-10-9-10--|
C |--4-4-444444-4-4---------------|
     . . ...... . .

1x

D |---------------|
A |---------------|
F |--4--7--9--12--|
C |--4--7--9--12--|
G |--4--7--9--12--|
C |--4--7--9--12--|


3x

Tapping! Hold 7th Fret at the A-String
D |--------------------------------------------------------------|
A |--(7 HOLD)--15-14-15-14-15-14-15-14--14-12-14-12-14-12-14-12--|
F |--------------------------------------------------------------|
C |--------------------------------------------------------------|
G |--------------------------------------------------------------|
C |--------------------------------------------------------------|

D |------------------------------------------------|
A |--12-10-12-10-12-10-12-10--10-9-10-9-10-9-10-9--|
F |------------------------------------------------|
C |------------------------------------------------|
G |------------------------------------------------|
C |------------------------------------------------|


2x

D |-----------------------------------------|
A |-----------------------------------------|
F |-----------------------------------------|
C |--4-4-4-4-4-4-4-4--12-12-12-12--9-9-9-9--|
G |--4-4-4-4-4-4-4-4--12-12-12-12--9-9-9-9--|
C |--4-4-4-4-4-4-4-4--12-12-12-12--9-9-9-9--|


2x

D |-----------------------------------------|
A |-----------------------------------------|
F |-----------------------------------------|
C |--4-7-4-7-4-7-4-7--12-12-12-12--9-9-9-9--|
G |--4-7-4-7-4-7-4-7--12-12-12-12--9-9-9-9--|
C |--4-7-4-7-4-7-4-7--12-12-12-12--9-9-9-9--|


2x

D |-------------------------------------------|
A |-------------------------------------------|
F |-------------------------------------------|
C |--444444444444444--12-12-12-12--9-9-9-9--4-|
G |--444444444444444--12-12-12-12--9-9-9-9--4-|
C |--444444444444444--12-12-12-12--9-9-9-9--4-|

Insert sometimes the 7th fret :))
Добавлено: 13.04.2012
Другие материалы по этой песне:

Страница создана 27.02.2012
http://primanota.ru/callejon/snake-mountain-chords.htm
Привет, Гость.
Предлагаем пройти революционный курс по гитаре.
Подарок от PrimaNota.Ru, забирай!