PrimaNota.ru - самый крупный в мире бесплатный архив песенных текстов, аккордов, табулатур и нот


Callejeros - El Duende Del Arbol - аккорды и текст, видео

Регистрация Запомнить меня
Войти через:  Facebook Google Twitter Vk Yandex Mail.ru

Callejeros - El Duende Del Arbol - аккорды и текст, видео

Печатать
Просмотров: 98
El Duende Del Arbol
Callejeros
INTRO:
E|------------------------------|
A|------------------------------|
D|----------------------2-------|
G|-2---2----2------------2------|
B|--3-3----3-1-3-------5--1-5---|
e|---2--3-2-----2-2-0-5----5----|

(con intro)
En sus ojos nunca pude encontrar maldad
Pero a veces para no morir hay que matar
Todo fue esa noche en que ciego y borracho nos quiso asustar
Pero un golpe sin suerte dejó a su cuchillo clavado en su mal

 G#                       C      C#              C
Así fue que al duende del árbol tuvimos que asesinar,
 B         Bb         G
Matar y cortar, y cortar.

(con intro)
Su cuchillo había destripado a dos duendes ya
Pero en estas historias nunca nadie puede celebrar
Asi fue que al duende del arbol en partes
Tuvimos que enterrar, tapar y olvidar, y olvidar

 D           G    Em          Bb
Cual es esa ley? pregunto el duende al sol
 D               G        Em            A
que aunque mate siempre, siempre obtendre el perdón
 D            D#  Em         C        A
Pero aquella ley  esa noche la rompi yo


[Este solo lo hace Juancho con el acordeon
con la guitarra sonaria algo asi]

E|----------------------------------------------------------------|
A|----------------------------------------------------------------|
D|----------------------------------------------------------------|
G|-2-------------2-2--2------------2-0-2-----2-2---------2--------|
B|---0-1-0-3-1-0-------0-1-0-3-1-0------0-1-0---0-1-3-1-0-1-0-----|
e|----------------------------------------------------------------|

E|------------------------------------------------------------------|
A|------------------------------------------------------------------|
D|------------------------------------------------------------------|
G|-2-------------2-2--2------------2-0-2-----2-2---------2----2-1---|
B|---0-1-0-3-1-0-------0-1-0-3-1-0------0-1-0---0-1-3-1-0-1-0-------|
e|------------------------------------------------------------------|

E|--------------------------------------|
A|--------------------------------------|
D|--------------------------------------|
G|-1-2-1-0-------------------------3----|
B|--1-----1-1-2-2-2-2-2-1-1-0---1-0-----|
e|-----------------2--------------------|

Gm - Gm

(con intro)
Solo el cielo quiso ver lo que quedó de él
Nuestro miedo se hizo odio en un instante cruel.
Asi fue que al duende del árbol
De un tajo le pudimos dar
Un poquitito de paz, de paz.

(con intro)
Cual es esa ley? pregunto el duende al sol
que aunque mate siempre, siempre obtendré el perdon?
Pero aquella ley esa noche la rompi yo


D#                    A#          A
Y ahora tengo a este duende sepultado,
            Gm
Y ya sin perdón

Gm



Nota: en las partes con base INTRO, arriba de la intro hay acordes pero estan con algun
tipo de efecto y sinceramente no tuve el tiempo y la paciencia para poderlos sacar

CALLEJEROS INOCENTES
"LA MUSICA NO MATA"
Добавлено: 08.10.2013
Другие материалы по этой песне:
  • Аккорды и текст

Страница создана 08.10.2013
http://primanota.ru/callejeros/el-duende-del-arbol-chords.htm
Привет, Гость.
Предлагаем пройти революционный курс по гитаре.
Подарок от PrimaNota.Ru, забирай!