PrimaNota.ru - самый крупный в мире бесплатный архив песенных текстов, аккордов, табулатур и нот


Calla - Fear Of Fireflies - аккорды и текст, таба, видео

Регистрация Запомнить меня
Войти через:  Facebook Google Twitter Vk Yandex Mail.ru

Calla - Fear Of Fireflies - аккорды и текст, таба, видео

Печатать
Просмотров: 201
Уроки эстрадного вокала в Санкт-Петербурге
Fear Of Fireflies
Calla
-------------------------------------------------------------------------------
                             FEAR OF FIREFLIES - Calla
-------------------------------------------------------------------------------
Tabbed by: aslamp
Email: c@aslamp.com

Standard
Capo 1st fret

Main Riff:
e|-------------------------------------|
B|-------------------------------------|
G|-------------------------------------|
D|-----2-----0-2--------2-------0-2----|
A|-------0-2----------------0-2--------|
E|-0----0-------------0---0------------|

Em

G       D      Em
Outside before you
Em

G          D       Em
Who's left to step to?
G      D       Em
Follow me back through
G          D       Em
Should be, could be you
Em

Em         D         Am        Em
My fear of fire back cover me
Em         D    Am       C
Steal sure fire over me
C      G
Sea of fireflies
D            C
Hover in the dark
C         G
Following tracers
D          C
Scattering apart
C

C          Em
Following me
Em

G          D          Em
Black cat, firecrack, shoot
G         D        Em
Could be, should be you
Em

Em         D         Am        Em
My fear of fire back cover me
Em         D    Am       C
Steal sure fire over me
C      G
Sea of fireflies
D            C
Hover in the dark
C         G
Following tracers
D          C
Scattering apart
C

C          Em
Following me
Em

Mid Riff:
e|-------------------|--------|------------|
B|-------------------|--------|------------|
G|-------------------|--9---7-|------------|
D|--9----9-10--7---9-|-10---9-|---9-----7--|
A|-10---10-12--9--10-|--------|-10-10--9-9-|
E|-------------------|--------|------------|
Добавлено: 15.06.2012
Вам также может быть интересно:
Другие материалы по этой песне:
  • Аккорды и текст

Страница создана 15.05.2012
http://primanota.ru/calla/fear-of-fireflies-chords.htm
Привет, Гость.
Предлагаем пройти революционный курс по гитаре.
Подарок от PrimaNota.Ru, забирай!