PrimaNota.ru - самый крупный в мире бесплатный архив песенных текстов, аккордов, табулатур и нот


Call Me No One - The World Is Dead - таба, видео

Регистрация Запомнить меня
Войти через:  Facebook Google Twitter Vk Yandex Mail.ru

Call Me No One - The World Is Dead - таба, видео

Печатать
Просмотров: 75
The World Is Dead by Call Me No One

tabbed by tremontifan96

Intro

GTR1
C-------------------------------------------------------------------------|
G-------------------------------------------------------------------------|
D#------------------------------------------------------------------------|
A#-1-0-0-4-3-10-8----1-0-0-4-3-10-8-x-1-0-0-------------------------------|
F-1-0-0-4-3-10-8-x--1-0-0-4-3-10-8-x-1-0-0--------------------------------|
A#-1-0-0-4-3-10-8-x--1-0-0-4-3-10-8-x-1-0-0-------------------------------|

GTR2
C-10--10--10-10-10-10---10--10--10-10-10-10-------------------------------|
G-13b-13b-13-13-13-13---13b-13b-13-13-13-13-------------------------------|
D#------------------------------------------------------------------------|
A#---------------------------------------------1-0-0----------------------|
F---------------------x----------------------x-1-0-0----------------------|
A#---------------------x---------------------x-1-0-0----------------------|

                                             The day burns out...

 Why don't you cover your scream...

 Play this part two times

-10--10--10-10-10-10-10-10---10--10--10-10-10-10-10-10-----------------|
-13b-13b-13-13-13-13-13-13---13b-13b-13-13-13-13-13-13-----------------|
-----------------------------------------------------------------------|
-----------------------------------------------------------------------|
---------------------------x-------------------------------------------|
---------------------------x-------------------------------------------|



-----------------------------------------------------------------------|
-----------------------------------------------------------------------|
---7---8---5---7---2---5---7-5-----------------------------------------|
---x---x---x---x---x---x---x-x-----------------------------------------|
-xx5-xx6-xx3-xx5-xx0-xx3-xx5-3-----------------------------------------|
-xx--xx--xx--xx--xx--xx--xx--------------------------------------------|

The whole world is dead, the world is dead.

-----------------------------------------------------------------------|
-----------------------------------------------------------------------|
-3-3-3-3-3-3-3-3----------------------7---7-------7---7----------------|
-3-3-3-3-3-3-3-3-5-5-5-5-5-5-5-5--0-0-x-x-x-0-0-0-x-x-x-x--------------|
-1-1-1-1-1-1-1-1-5-5-5-5-5-5-5-5--0-0-5-x-5-0-0-0-5-x-5-x--------------|
-----------------5-5-5-5-5-5-5-5--0-0---x---0-0-0---x---x--------------|

-----------------------------------------------------------------------|
-----------------------------------------------------------------------|
-3-3-3-3-3-3-3-3-------------------------------------------------------|
-3-3-3-3-3-3-3-3-5-5-5-5-5-5-5-5-\-1-0-0-4-3-10-8-x-x-1-0-0------------|
-1-1-1-1-1-1-1-1-5-5-5-5-5-5-5-5-\-1-0-0-4-3-10-8-x-x-1-0-0------------|
-----------------5-5-5-5-5-5-5-5-\-1-0-0-4-3-10-8-x-x-1-0-0------------|

-----------------------------------------------------------------------|
-----------------------------------------------------------------------|
-12-12-12b-------------------------------------------------------------|
-x--x--x---------------------------------------------------------------|
-10-10-10b-------------------------------------------------------------|
-----------------------------------------------------------------------|

-----------------------------------------------------------------------|
-----------------------------------------------------------------------|
-----------------------------------------------------------------------|
-1-0-0-4-3-10-8----1-0-0-4-3-10-8-x-1-0-0------------------------------|
-1-0-0-4-3-10-8-x--1-0-0-4-3-10-8-x-1-0-0------------------------------|
-1-0-0-4-3-10-8-x--1-0-0-4-3-10-8-x-1-0-0------------------------------|

 Play this part two times

-10--10--10-10-10-10-10-10---10--10--10-10-10-10-10-10-----------------|
-13b-13b-13-13-13-13-13-13---13b-13b-13-13-13-13-13-13-----------------|
-----------------------------------------------------------------------|
-----------------------------------------------------------------------|
---------------------------x-------------------------------------------|
---------------------------x-------------------------------------------|

-----------------------------------------------------------------------|
-----------------------------------------------------------------------|
---7---8---5---7---2---5---7-5-----------------------------------------|
---x---x---x---x---x---x---x-x-----------------------------------------|
-xx5-xx6-xx3-xx5-xx0-xx3-xx5-3-----------------------------------------|
-xx--xx--xx--xx--xx--xx--xx--------------------------------------------|

-----------------------------------------------------------------------|
-----------------------------------------------------------------------|
-3-3-3-3-3-3-3-3----------------------7---7-------7---7----------------|
-3-3-3-3-3-3-3-3-5-5-5-5-5-5-5-5--0-0-x-x-x-0-0-0-x-x-x-x--------------|
-1-1-1-1-1-1-1-1-5-5-5-5-5-5-5-5--0-0-5-x-5-0-0-0-5-x-5-x--------------|
-----------------5-5-5-5-5-5-5-5--0-0---x---0-0-0---x---x--------------|

------------------------------------------------------------------------|
----------------------------------------6-----8-----5-----6------8----5-|
-3-3-3-3-3-3-3-3--------------------------------------------------------|
-3-3-3-3-3-3-3-3-5-5-5-5-5-5-5-5---0-0----0-0---0-0---0-0----0-0---0-0--|
-1-1-1-1-1-1-1-1-5-5-5-5-5-5-5-5----------------------------------------|
-----------------5-5-5-5-5-5-5-5----------------------------------------|

SOLO TIME!

c----------------------------------------------------------------------|
g---8b-6------------6---6/8----8--13b--13b--15b-13~~-------------------|
d#---------9-9-9-9-9----9-----10---------------------------------------|
a#---------------------------------------------------------------------|
f----------------------------------------------------------------------|
a#---------------------------------------------------------------------|


c----------------------------------------------------------------------|
g------10-11-10-----10-------------------------------------------------|
d#--------------12-----12------10b~~-8--------10b~~-8------------------|
a#-------------------------12---------7ph~~-----------7--9~~-----------|
f----------------------------------------------------------------------|
a#---------------------------------------------------------------------|


c---------10-------13------17~~----10-8------15-13-------17-15---------|
g------14-----14/17-----17--------------10-8-------15-13-------17-15---|
d#---------------------------------------------------------------------|
a#---------------------------------------------------------------------|
f----------------------------------------------------------------------|
a#---------------------------------------------------------------------|

c-----20---20b--20b~~20b~20b~~20b~~------------------------------------|
g----------------------------------------------------------------------|
d#---------------------------------------------------------------------|
a#---------------------------------------------------------------------|
f----------------------------------------------------------------------|
a#--------------------------------------------------\\\\\\\\\\\\\\\\\\-|

Play this part two times

-----------------------------------------------------------------------|
-----------------------------------------------------------------------|
-3-3-3-3-3-3-3-3----------------------7---7-------7---7----------------|
-3-3-3-3-3-3-3-3-5-5-5-5-5-5-5-5--0-0-x-x-x-0-0-0-x-x-x-x--------------|
-1-1-1-1-1-1-1-1-5-5-5-5-5-5-5-5--0-0-5-x-5-0-0-0-5-x-5-x--------------|
-----------------5-5-5-5-5-5-5-5--0-0---x---0-0-0---x---x--------------|

-----------------------------------------------------------------------|
-----------------------------------------------------------------------|
-----------------------------------------------------------------------|
-1-0-0-4-3-10-8----1-0-0-4-3-10-8-x-1-0-0-0-0-0-0----------------------|
-1-0-0-4-3-10-8-x--1-0-0-4-3-10-8-x-1-0-0-0-0-0-0----------------------|
-1-0-0-4-3-10-8-x--1-0-0-4-3-10-8-x-1-0-0-0-0-0-0----------------------|

Rate and comment ;)
Добавлено: 24.08.2013
Вам также может быть интересно:
Другие материалы по этой песне:
  • Аккорды и текст

Страница создана 24.08.2013
http://primanota.ru/call-me-no-one/the-world-is-dead-chords.htm
Привет, Гость.
Предлагаем пройти революционный курс по гитаре.
Подарок от PrimaNota.Ru, забирай!