PrimaNota.ru - самый крупный в мире бесплатный архив песенных текстов, аккордов, табулатур и нот


Calibro 35 - Uh Ah Brr - бас-таба, видео

Регистрация Запомнить меня
Войти через:  Facebook Google Twitter Vk Yandex Mail.ru

Calibro 35 - Uh Ah Brr - бас-таба, видео

Печатать
Просмотров: 34
-------------------------------------------------------------------------------
                             UH AH BRR - Calibro 35
-------------------------------------------------------------------------------

From the album: "Ogni riferimento a persone esistenti o a fatti realmente accaduti è puramente casuale"

Intro
G|------------------------|
D|----------------1-1-/6~-|
A|------3-3--1-1----------|
E|-4-4--------------------|

"Uh ah brr" riff
G|---.---.---.--------.---.---|
D|-.-7-.-7-.-7-.----.-7-.-7-.-|
A|-0---0---0---0----0---0---0-| (x2)
E|----------------------------|

Main riff
G|------------------------------------------------------------------------------|
D|-------5-7~--7p5-----------5-----------------5-7~--7p5--------------------1-1-|
A|---5-7-----------7p5---5-7---------------5-7-----------7p5------3-3--1-1------| (x2)
E|-5-------------------5-------5~--3/5---5-------------------4-4----------------|

Instead of that 3/5 slide on the E string, a couple of times you can play a simple variation:
· variation 1         · variation 2          
G|-----|              G|--------|
D|-5/7-|              D|-----12-|
A|-----|              A|-/10----|
E|-----|              E|--------|

Bridge pt.1
G|----------------------------|
D|----------------------------|
A|---------.-------.----------|
E|-5--3-5--3--5-3--3-3h5--3-5-|

Bridge pt.2
G|-----------------------------------------------------|
D|----------7-9~--9p7--------------10-12~--12p10-------|
A|------7-9-----------9p7----10-12---------------12p10-|
E|-17\7-------------------10---------------------------|


Song Structure

Intro (0:00-0:05)
"Uh ah brr" riff (0:06-0:17)
Main riff (0:18-0:41)
Bridge pt.1 + pt.2 (0:41-1:04)
"Uh ah brr" riff (1:05-1:16)
Main riff (1:17-1:40)
Bridge pt.1 + pt.2 (1:40-2:03)
"Uh ah brr" riff (2:03-2:14)
Intro (2:15-2:20)
"Uh ah brr" riff (2:21-2:32)

 
| /  slide up
| \  slide down
| h  hammer-on
| p  pull-off
| ~  let ring
| +  harmonic
| x  Mute note
===============================================================================
Добавлено: 06.12.2015
Вам также может быть интересно:
Другие материалы по этой песне:
  • Аккорды и текст

Страница создана 06.12.2015
http://primanota.ru/calibro-35/uh-ah-brr-chords.htm
Привет, Гость.
Предлагаем пройти революционный курс по гитаре.
Подарок от PrimaNota.Ru, забирай!