PrimaNota.ru - самый крупный в мире бесплатный архив песенных текстов, аккордов, табулатур и нот


Calibro 35 - Notte In Bovisa - бас-таба, видео

Регистрация Запомнить меня
Войти через:  Facebook Google Twitter Vk Yandex Mail.ru

Calibro 35 - Notte In Bovisa - бас-таба, видео

Печатать
Просмотров: 190
Уроки эстрадного вокала в Санкт-Петербурге
CALIBRO 35 - NOTTE IN BOVISA
ALBUM: CALIBRO 35 (2008)
BASSIST: LUCA "NANO" CAVINA

VERSE

E -----------------------------------------------------------|
A --7-------------7-------------7------------7------------7--|
D ---------------------------------------------5-7-8-9-------|
G ----9-7-9--9-9-----9-7-9--9-9---9-7-9--9-9-----------9-----|

VARIATIONS

E --------------------|
A --7-------------7---|
D --------9---7-------|
G ----9-7-------------|


E --------------------|
A --7-------------7---|
D --------9---5-------|
G ----9-7-------------|


JAH WOBBLE IS GOD!

http://www.myspace.com/calibro35
Добавлено: 14.07.2012
Другие материалы по этой песне:
  • Аккорды и текст

Страница создана 14.07.2012
http://primanota.ru/calibro-35/notte-in-bovisa-chords.htm
Привет, Гость.
Предлагаем пройти революционный курс по гитаре.
Подарок от PrimaNota.Ru, забирай!