PrimaNota.ru - самый крупный в мире бесплатный архив песенных текстов, аккордов, табулатур и нот


Calibro 35 - Giulia Mon Amour - бас-таба, видео

Регистрация Запомнить меня
Войти через:  Facebook Google Twitter Vk Yandex Mail.ru

Calibro 35 - Giulia Mon Amour - бас-таба, видео

Печатать
Просмотров: 34
CALIBRO 35
"Giulia Mon Amour" - bass tab

Tabbed by: Leonardo

INTRO (0:06)
G|-----|
D|-----|
A|-12/-|
E|-----|

G|-------------------------------|
D|-------------------------------|
A|-7-7---------------7-7-------5-| (x2)
E|-------3-3---5-5---------5-7---|

G|---------------------------------|
D|---------------------------------|
A|-7-7-7-7-7-7-7-7-7-7-7-7-7-7-7-7-|
E|---------------------------------|

G|---------------------------------|
D|---------------------------------|
A|-5-7-7-7-7-7-7-7-7-7-7-7-7-7-7-7-| (x3)
E|---------------------------------|

G|------|
D|------|
A|-5-7\-|
E|------|

MAIN RIFF 1 (0:37-1:04)
G|------------------|
D-------------------|
A|-7--7-5h7p5-------|
E|------------7-5-3-|

G|---------------------------------------------------|
D|----2-0--------5-3-------7-5--------2--0h2p0-------|
A|--------2----------5---------7---------------2-0---| (x4)
E|-0---------0-3-------3/5-------5-0---------------3-|

MAIN RIFF 2 (1:05-1:31)
G|-----------------------------------------------------|
D|---7-5--------10-8----------5-3--------7-5h7p5-------|
A|-------7-----------10-----------5--------------7-5---| (x4)
E|-5--------5/8----------8\3--------3/5--------------8-|

BREAK (1:31-1:49)
G|------------------------------------|
D|-----9-9------9-9------9-9------9-9-|
A|------------------------------------|
E|-7-7------7-7------7-7------7-7-----|

G|----------------------------------------------|
D|-----9-9-----10-10-----11-11-------12-12------|
A|----------------------------------------------|
E|-7-7-----8-8-------9-9-------10-10--------12\-|

G|-------------------------------------|
D|-------------------------------------|
A|-----------7---7-7---------------7-7-|
E|-3-3---5-------------3-3---5-5-------|

MAIN RIFF 1 (1:49-2:16)
G|---------------|
D|---------------|
A|-7-5h7p5-------|
E|---------7-5-3-|

G|---------------------------------------------------|
D|----2-0--------5-3-------7-5--------2--0h2p0-------|
A|--------2----------5---------7---------------2-0---| (x4)
E|-0---------0-3-------3/5-------5-0---------------3-|

MAIN RIFF 2 (2:17-2:42)
G|-----------------------------------------------------|
D|---7-5--------10-8----------5-3--------7-5h7p5-------|
A|-------7-----------10-----------5--------------7-5---| (x4)
E|-5--------5/8----------8\3--------3/5--------------8-|

BREAK (2:42-3:00)
G|------------------------------------|
D|-----9-9------9-9------9-9------9-9-|
A|------------------------------------|
E|-7-7------7-7------7-7------7-7-----|

G|----------------------------------------------|
D|-----9-9-----10-10-----11-11-------12-12------|
A|----------------------------------------------|
E|-7-7-----8-8-------9-9-------10-10--------12\-|

G|----------------------------------------------|
D|----------------------------------------------|
A|-------------7-7------5-7-7---------------7-7-|
E|-3-3---5-5--------5-7---------3-3---5-5-------|

MAIN RIFF 1 (3:01-3:14)
G|---------------|
D|---------------|
A|-7-5h7p5-------|
E|---------7-5-3-|

G|---------------------------------------------------|
D|----2-0--------5-3-------7-5--------2--0h2p0-------|
A|--------2----------5---------7---------------2-0---| (x2)
E|-0---------0-3-------3/5-------5-0---------------3-|

OUTRO (3:14-3:38)
G|---------------------------------|
D|---------------------------------|
A|-7-7-7-7-7-7-7-7-7-7-7-7-7-7-7-7-|
E|---------------------------------|

G|---------------------------------|
D|---------------------------------|
A|-5-7-7-7-7-7-7-7-7-7-7-7-7-7-7-7-| (x3)
E|---------------------------------|

G|---------------------------------------|
D|---------------------------------------|
A|-5-7-7-7-7-7-7-7-7-7-7-7--7--7--7--7-\-| (slow down as song ends)
E|---------------------------------------|


| /  slide up
| \  slide down
| h  hammer-on
| p  pull-off
| ~  let ring
| +  harmonic
| x  Mute note
Добавлено: 20.06.2016
Другие материалы по этой песне:
  • Аккорды и текст

Страница создана 20.06.2016
http://primanota.ru/calibro-35/giulia-mon-amour-chords.htm
Привет, Гость.
Предлагаем пройти революционный курс по гитаре.
Подарок от PrimaNota.Ru, забирай!