PrimaNota.ru - самый крупный в мире бесплатный архив песенных текстов, аккордов, табулатур и нот


Calibre - Calibre - текст песни, таба, бас-таба, видео

Регистрация Запомнить меня
Войти через:  Facebook Google Twitter Vk Yandex Mail.ru

Calibre - Calibre - текст песни, таба, бас-таба, видео

Печатать
Просмотров: 217
Artist: .calibre                                     
Song: calibre
Album: Kill The Logo

Tab: guitar
Written and composed by .calibre



     C#m7                                                        
E||------------------------------|------------------------------|
B||------------------------------|------------------------------|
G||--6--6-6-6r-6-6--6-6-6-6r-6-6-|--6--6-6-6r-6-6--6-6-6-6r-6-6-|
D||--6--6-6-6r-6-6--6-6-6-6r-6-6-|--6--6-6-6r-6-6--6-6-6-6r-6-6-|
A||--4--4-4-4--4-4--4-4-4-4--4-4-|--4--4-4-4--4-4--4-4-4-4--4-4-|
E||------------------------------|------------------------------|


                                                        
------------------------------|------------------------|
------------------------------|------------------------|
--6--6-6-6r-6-6--6-6-6-6r-6-6-|--6--6-6-6r-6-6---------|
--6--6-6-6r-6-6--6-6-6-6r-6-6-|--6--6-6-6r-6-6---------|
--4--4-4-4--4-4--4-4-4-4--4-4-|--4--4-4-4--4-4---------|
------------------------------|------------------------|


    C#m7                                                        
|---0---------------------------|------------------------------|
|---0---------------------------|------------------------------|
|*--6--6-6-6r-6-6--6-6-6-6r-6-6-|--6--6-6-6r-6-6--6-6-6-6r-6-6-|
|*--6--6-6-6r-6-6--6-6-6-6r-6-6-|--6--6-6-6r-6-6--6-6-6-6r-6-6-|
|---4--4-4-4--4-4--4-4-4-4--4-4-|--4--4-4-4--4-4--4-4-4-4--4-4-|
|-------------------------------|------------------------------|


  A7M9                                                          
--0---------------------------|-------------------------------||
--0---------------------------|-------------------------------||
--6--6-6-6r-6-6--6-6-6-6r-6-6-|--6--6-6-6r-6-6--6-6-6-6r-6-6-*||
--6--6-6-6r-6-6--6-6-6-6r-6-6-|--6--6-6-6r-6-6--6-6-6-6r-6-6-*||
------------------------------|-------------------------------||
--5--5-5-5--5-5--5-5-5-5--5-5-|--5--5-5-5--5-5--5-5-5-5--5-5--||


                      C#m7                                        
--0----------------|-----------------------0--|------------------|
--0----------------|--------------0-----------|------------------|
--6----------------|--------6--------6--------|------------------|
--6----------------|-----6-----6--------6-----|------------------|
-------------------|--4-----------------------|------------------|
--5----------------|--------------------------|------------------|


  A7M9                                                 C#m7                     
-----------------------0--|-------------------------|-----------------------0--|
--------------0-----------|----5--5--5--5h-4h-------|--------------0-----------|
--------6--------6--------|-------------------6h----|--------6--------6--------|
-----6-----6--------6-----|----------------------6--|-----6-----6--------6-----|
--0-----------------------|-------------------------|--4-----------------------|
--------------------------|-------------------------|--------------------------|


                      A7M9                                               
-------------------|-----------------------0--|-------------------------|
-------------------|--------------0-----------|----5--5--5--5h-4h-------|
-------------------|--------6--------6--------|-------------------6h----|
-------------------|-----6-----6--------6-----|----------------------6--|
----------------4--|--0-----------------------|-------------------------|
-------------------|--------------------------|-------------------------|


  C#m7                                                 A7M9                     
-----------------------0--|-------------------------|-----------------------0--|
--------------0-----------|-------------0-----------|--------------0-----------|
--------6--------6--------|-------6--------6--------|--------6--------6--------|
-----6-----6--------6-----|----6-----6--------6-----|-----6-----6--------6-----|
--4-----------------------|----------------------4--|--0-----------------------|
--------------------------|-------------------------|--------------------------|


                            C#m7                                               
-------------------------|-----------------------0--|-------------------------|
-------------0-----------|--------------0-----------|-------------0-----------|
-------6--------6--------|--------6--------6--------|-------6--------6--------|
----6-----6--------6-----|-----6-----6--------6-----|----6-----6--------6-----|
----------------------0--|--4-----------------------|----------------------4--|
-------------------------|--------------------------|-------------------------|


  A7M9                                         
--------------------------|-------------------|
--------------0--------0--|-------------------|
--------6--------6--------|--------------4----|
-----6-----6--------6-----|--------------4----|
--0-----------------------|--------------2----|
--------------------------|-------------------|


                                                                     
|---------------------------------|---------------------------------|
|---------------------------------|---------------------------------|
|*--6---x-x-x-x-x-x-x-x-x-x-4-4-4-|--6--x-x-x-x-x-x-x-x-x-x-x-6-6-6-|
|*--6---x-x-x-x-x-x-x-x-x-x-4-4-4-|--6--x-x-x-x-x-x-x-x-x-x-x-6-6-6-|
|---4---x-x-x-x-x-x-x-x-x-x-2-2-2-|--4--x-x-x-x-x-x-x-x-x-x-x-0-0-0-|
|---------------------------------|---------------------------------|


                                                                
--------------------------------|-----------------------------||
--------------------------------|-----------------------------||
--6---x-x-x-x-x-x-x-x-x-x-6-6-6-|--6---x-x-x-x-x-x-4~--x-4~--*||
--6---x-x-x-x-x-x-x-x-x-x-6-6-6-|--6---x-x-x-x-x-x-4~--x-4~--*||
--x-----------------------0-0-0-|--x---------------2~----2~---||
--5---x-x-x-x-x-x-x-x-x-x-x-x-x-|--5---x-x-x-x-x--------------||


                                     C#m7                         
--------------------------------||---0---------------------------|
--------------------------------||---0---------------------------|
--6---x-6-6-6-6-6~6-6-6-6-6-6-6-||*--6--6-6-6r-6-6--6-6-6-6r-6-6-|
--6---x-6-6-6-6-6~6-6-6-6-6-6-6-||*--6--6-6-6r-6-6--6-6-6-6r-6-6-|
--x-----------------------------||---4--4-4-4--4-4--4-4-4-4--4-4-|
--5---x-5-5-5-5-5~5-5-5-5-5-5-5-||-------------------------------|


                                 A7M9                         
------------------------------|--0---------------------------|
------------------------------|--0---------------------------|
--6--6-6-6r-6-6--6-6-6-6r-6-6-|--6--6-6-6r-6-6--6-6-6-6r-6-6-|
--6--6-6-6r-6-6--6-6-6-6r-6-6-|--6--6-6-6r-6-6--6-6-6-6r-6-6-|
--4--4-4-4--4-4--4-4-4-4--4-4-|------------------------------|
------------------------------|--5--5-5-5--5-5--5-5-5-5--5-5-|


                                                       C#m7                     
-------------------------------||--0----------------|-----------------------0--|
-------------------------------||--0----------------|--------------0-----------|
--6--6-6-6r-6-6--6-6-6-6r-6-6-*||--6----------------|--------6--------6--------|
--6--6-6-6r-6-6--6-6-6-6r-6-6-*||--6----------------|-----6-----6--------6-----|
-------------------------------||-------------------|--4-----------------------|
--5--5-5-5--5-5--5-5-5-5--5-5--||--5----------------|--------------------------|


                     A7M9                                               
------------------|-----------------------0--|-------------------------|
------------------|--------------0-----------|----5--5--5--5h-4h-------|
------------------|--------6--------6--------|-------------------6h----|
------------------|-----6-----6--------6-----|----------------------6--|
------------------|--0-----------------------|-------------------------|
------------------|--------------------------|-------------------------|


  C#m7                                           A7M9                     
-----------------------0--|-------------------|-----------------------0--|
--------------0-----------|-------------------|--------------0-----------|
--------6--------6--------|-------------------|--------6--------6--------|
-----6-----6--------6-----|-------------------|-----6-----6--------6-----|
--4-----------------------|----------------4--|--0-----------------------|
--------------------------|-------------------|--------------------------|


                            C#m7                                               
-------------------------|-----------------------0--|-------------------------|
----5--5--5--5h-4h-------|--------------0-----------|-------------0-----------|
-------------------6h----|--------6--------6--------|-------6--------6--------|
----------------------6--|-----6-----6--------6-----|----6-----6--------6-----|
-------------------------|--4-----------------------|----------------------4--|
-------------------------|--------------------------|-------------------------|


  A7M9                                                 C#m7                     
-----------------------0--|-------------------------|-----------------------0--|
--------------0-----------|-------------0-----------|--------------0-----------|
--------6--------6--------|-------6--------6--------|--------6--------6--------|
-----6-----6--------6-----|----6-----6--------6-----|-----6-----6--------6-----|
--0-----------------------|----------------------0--|--4-----------------------|
--------------------------|-------------------------|--------------------------|


                            A7M9                                         
-------------------------|--------------------------|-------------------|
-------------0-----------|--------------0--------0--|-------------------|
-------6--------6--------|--------6--------6--------|--------------4----|
----6-----6--------6-----|-----6-----6--------6-----|--------------4----|
----------------------4--|--0-----------------------|--------------2----|
-------------------------|--------------------------|-------------------|


                                                                     
|---------------------------------|---------------------------------|
|---------------------------------|---------------------------------|
|*--6---x-x-x-x-x-x-x-x-x-x-4-4-4-|--6--x-x-x-x-x-x-x-x-x-x-x-6-6-6-|
|*--6---x-x-x-x-x-x-x-x-x-x-4-4-4-|--6--x-x-x-x-x-x-x-x-x-x-x-6-6-6-|
|---4---x-x-x-x-x-x-x-x-x-x-2-2-2-|--4--x-x-x-x-x-x-x-x-x-x-x-0-0-0-|
|---------------------------------|---------------------------------|


                                                                    
--------------------------------|---------------------------------||
--------------------------------|---------------------------------||
--6---x-x-x-x-x-x-x-x-x-x-6-6-6-|--6---x-x-x-x-x---x-4~----x-4~--*||
--6---x-x-x-x-x-x-x-x-x-x-6-6-6-|--6---x-x-x-x-x---x-4~----x-4~--*||
--x-----------------------0-0-0-|--x-----------------2~------2~---||
--5---x-x-x-x-x-x-x-x-x-x-x-x-x-|--5---x-x-x-x-x---x-------x-x~---||


                                     C#m7                         
--------------------------------||---0---------------------------|
--------------------------------||---0---------------------------|
--6---x-6-6-6-6-6~6-6-6-6-6-6-6-||*--6--6-6-6r-6-6--6-6-6-6r-6-6-|
--6---x-6-6-6-6-6~6-6-6-6-6-6-6-||*--6--6-6-6r-6-6--6-6-6-6r-6-6-|
--x-----------------------------||---4--4-4-4--4-4--4-4-4-4--4-4-|
--5---x-5-5-5-5-5~5-5-5-5-5-5-5-||-------------------------------|


                                 A7M9                         
------------------------------|--0---------------------------|
------------------------------|--0---------------------------|
--6--6-6-6r-6-6--6-6-6-6r-6-6-|--6--6-6-6r-6-6--6-6-6-6r-6-6-|
--6--6-6-6r-6-6--6-6-6-6r-6-6-|--6--6-6-6r-6-6--6-6-6-6r-6-6-|
--4--4-4-4--4-4--4-4-4-4--4-4-|------------------------------|
------------------------------|--5--5-5-5--5-5--5-5-5-5--5-5-|


                                                                
-------------------------------||------------------------------|
-------------------------------||------------------------------|
--6--6-6-6r-6-6--6-6-6-6r-6-6-*||--6--6-6-6r-6-6--6-6-6-6r-6-6-|
--6--6-6-6r-6-6--6-6-6-6r-6-6-*||--6--6-6-6r-6-6--6-6-6-6r-6-6-|
-------------------------------||------------------------------|
--5--5-5-5--5-5--5-5-5-5--5-5--||--5--5-5-5--5-5--5-5-5-5--5-5-|


                                                                           
------------------------|------------------------|------------------------|
------------------------|------------------------|------------------------|
--6--4-6-------6--4-6---|--6--4-6-------6--4-6---|--9--7-9-------9--7-9---|
--6--4-6-------6--4-6---|--6--4-6-------6--4-6---|--9--7-9-------9--7-9---|
--4---------------------|--4---------------------|--7---------------------|
------------------------|------------------------|------------------------|


                                                                          
-----------------------|------------------------|------------------------|
-----------x-2r--------|------------------------|------------------------|
--4--2-4---x-2r--------|--6--4-6-------6--4-6---|--6--4-6-------6--4-6---|
--4--2-4---x-----------|--6--4-6-------6--4-6---|--6--4-6-------6--4-6---|
--2--------------------|--4---------------------|--4---------------------|
-----------------------|------------------------|------------------------|


                                                   
------------------------|-------------------------|
------------------------|-------------------------|
--9--7-9-------9--7-9---|--4--2-4-----x-2~--x-4~--|
--9--7-9-------9--7-9---|--4--2-4-----x-2~--x-4~--|
--7---------------------|--2------------0~----2~--|
------------------------|-------------------------|


                                                                    
--------------------------------|----------------------------------|
--------------------------------|----------------------------------|
--6---x-x-x-x-x-x-x-x-x-x-x-x-x-|--x-x-x-x-x-x-x-x-x-x-x-x-x-x-x-x-|
--6---x-x-x-x-x-x-x-x-x-x-x-x-x-|--x-x-x-x-x-x-x-x-x-x-x-x-x-x-x-x-|
--4---x-x-x-x-x-x-x-x-x-x-x-x-x-|--x-x-x-x-x-x-x-x-x-x-x-x-x-x-x-x-|
--------------------------------|----------------------------------|


                                                                      
----------------------------------|----------------------------------|
----------------------------------|----------------------------------|
--x-x-x-x-x-x-x-x-x-x-x-x-x-x-x-x-|--x-x-x-x-x-x-x-x-x-x-x-x-x-x-x-x-|
--x-x-x-x-x-x-x-x-x-x-x-x-x-x-x-x-|--x-x-x-x-x-x-x-x-x-x-x-x-x-x-x-x-|
--x-x-x-x-x-x-x-x-x-x-x-x-x-x-x-x-|--x-x-x-x-x-x-x-x-x-x-x-x-x-x-x-x-|
----------------------------------|----------------------------------|


                                                                    
---------------------------------|---------------------------------|
---------------------------------|---------------------------------|
--6--x-x-x-x-x-x-x-x-x-x-x-6-6-6-|--6--x-x-x-x-x-x-x-x-x-x-x-6-6-6-|
--6--x-x-x-x-x-x-x-x-x-x-x-6-6-6-|--6--x-x-x-x-x-x-x-x-x-x-x-6-6-6-|
--4--x-x-x-x-x-x-x-x-x-x-x-0-0-0-|--4--x-x-x-x-x-x-x-x-x-x-x-0-0-0-|
---------------------------------|---------------------------------|


                                                                  
--------------------------------|--------------------------------|
--------------------------------|--------------------------------|
--6---x-x-x-x-x-x-x-x-x-x-6-6-6-|--6---x-x-x-x-x-6-6-6-6-6-6-6-6-|
--6---x-x-x-x-x-x-x-x-x-x-6-6-6-|--6---x-x-x-x-x-6-6-6-6-6-6-6-6-|
--x-----------------------0-0-0-|--x-----------------------0-0-0-|
--5---x-x-x-x-x-x-x-x-x-x-x-x-x-|--5---x-x-x-x-x-x-x-x-x-x-x-x-x-|


  C#m7                                                        
--0---------------------------|------------------------------|
--0---------------------------|------------------------------|
--6--6-6-6r-6-6--6-6-6-6r-6-6-|--6--6-6-6r-6-6--6-6-6-6r-6-6-|
--6--6-6-6r-6-6--6-6-6-6r-6-6-|--6--6-6-6r-6-6--6-6-6-6r-6-6-|
--4--4-4-4--4-4--4-4-4-4--4-4-|--4--4-4-4--4-4--4-4-4-4--4-4-|
------------------------------|------------------------------|


  A7M9                                                        
--0---------------------------|------------------------------|
--0---------------------------|------------------------------|
--6--6-6-6r-6-6--6-6-6-6r-6-6-|--6--6-6-6r-6-6--6-6-6-6r-6-6-|
--6--6-6-6r-6-6--6-6-6-6r-6-6-|--6--6-6-6r-6-6--6-6-6-6r-6-6-|
------------------------------|------------------------------|
--5--5-5-5--5-5--5-5-5-5--5-5-|--5--5-5-5--5-5--5-5-5-5--5-5-|


  C#m7                                                        
--0---------------------------|------------------------------|
--0---------------------------|------------------------------|
--6--6-6-6r-6-6--6-6-6-6r-6-6-|--6--6-6-6r-6-6--6-6-6-6r-6-6-|
--6--6-6-6r-6-6--6-6-6-6r-6-6-|--6--6-6-6r-6-6--6-6-6-6r-6-6-|
--4--4-4-4--4-4--4-4-4-4--4-4-|--4--4-4-4--4-4--4-4-4-4--4-4-|
------------------------------|------------------------------|


  A7M9                                                        
--0---------------------------|------------------------------|
--0---------------------------|------------------------------|
--6--6-6-6r-6-6--6-6-6-6r-6-6-|--6--6-6-6r-6-6--6-6-6-6r-6-6-|
--6--6-6-6r-6-6--6-6-6-6r-6-6-|--6--6-6-6r-6-6--6-6-6-6r-6-6-|
------------------------------|------------------------------|
--5--5-5-5--5-5--5-5-5-5--5-5-|--5--5-5-5--5-5--5-5-5-5--5-5-|


    A7Madd11+                                                             
|--------0---------0-----|-------0---------0-----|-------0---------0-----|
|--------4---------4-----|-------4---------4-----|-------0---------0-----|
|*-------6---------6-----|-------6---------6-----|-------6---------6-----|
|*-------6---------6-----|-------6---------6-----|-------6---------6-----|
|------------------------|-----------------------|--4-----------4-----4--|
|---5-----------5-----5--|--5-----------5-----5--|-----------------------|


                                                                  
-------0---------0------||--0----------------|------------------||
-------0---------0------||--0----------------|------------------||
-------6---------6-----*||--6----------------|------------------||
-------6---------6-----*||--6----------------|------------------||
--4-----------4-----4---||-------------------|------------------||
------------------------||--5----------------|------------------||


Добавлено: 11.07.2012
Другие материалы по этой песне:

Страница создана 24.06.2012
http://primanota.ru/calibre/calibre-chords.htm
Привет, Гость.
Предлагаем пройти революционный курс по гитаре.
Подарок от PrimaNota.Ru, забирай!