PrimaNota.ru - самый крупный в мире бесплатный архив песенных текстов, аккордов, табулатур и нот


Caliban - Rise And Fight - текст песни, таба, видео

Регистрация Запомнить меня
Войти через:  Facebook Google Twitter Vk Yandex Mail.ru

Caliban - Rise And Fight - текст песни, таба, видео

Печатать
Просмотров: 203
Tuning : B f# b e g# c#

Intro:

|----------------|----|
|----------------|    |
|----------------|    |
|----------------|    |
|-5--6--5----2-2-| x3 |
|--00-00-0000-0--|    |
PM .. .. .... .       |
                      |
                      |  x2
|----------------|    |
|----------------|    |
|-7--8--4--------|    |
|-7--8--4---44---|    |
|-5--6--2---22---|    |
|---------00-----|----|
PM        ..

Strophe:

|------------------|
|------------------|
|------------------|
|------------------|
|-5--6--5----------| x3
|--00-00-00000000--|
PM .. .. ........


|----------------|
|----------------|
|-7--8--4--------|
|-7--8--4---44---|
|-5--6--2---22---|
|---------00-----|
PM        ..




Добавлено: 09.07.2012
Другие материалы по этой песне:

Страница создана 01.05.2012
http://primanota.ru/caliban/rise-and-fight-chords.htm
Привет, Гость.
Предлагаем пройти революционный курс по гитаре.
Подарок от PrimaNota.Ru, забирай!