PrimaNota.ru - самый крупный в мире бесплатный архив песенных текстов, аккордов, табулатур и нот


Calexico - Roka - аккорды и текст, видео

Регистрация Запомнить меня
Войти через:  Facebook Google Twitter Vk Yandex Mail.ru

Calexico - Roka - аккорды и текст, видео

Печатать
Просмотров: 96
Roka
Calexico
-------------------------------------------------------------------------------
                              Calexico - Roka
-------------------------------------------------------------------------------
Album : Garden Ruin (2006)
Tempo : 82
E-mail: gwendal.mollo@orange.fr
Tabbed by: newg

Capo 1

   Riff 1  (intro x 4, and during the verses)
e |----------------------------|----------------------------|
B |----------------------------|----------------------------|
G |----------------------------|----------------------------|
D |-----------2--0-------------|----------------------------|
A |--0-----------------2-------|--3--------3--2-------------|
E |----------------------------|--------------------4-------|

   Riff 2  
e |----------------------------|
B |----------------------------|
G |----------------------------|
D |-----------3--2-------------|
A |--2--3--5-------------------|
E |----------------------------|

Am
Sleeping in the valley, valley of ill fortune
Waking cross the river, river of delusion
Full moon lures the waves, waves of desperation
Empty hearts and mouths wither away

Am    G    Am
Close your eyes
Am   Em   C
Slow your breath
Em                Am
Dream of northern lights
Em          Am
Around this dance 

Riff 2

Am
No abandones, no llores, busca tu rio
No te sientas perdido
Gira, vuelta y vuelta 
Bailala

Am
Cup your hands to her parched heart, 
parched and Broken heart
No water here to drink way downstream
One goes where the water flows and water's running dry
So don't give up no don't cry, don't cry

     Am    G    Am
Just close our eyes
Am      Em    C
Pretend we forget
Em            Am
North country dreams
Em                       Am
Twist this dance .....of death

Riff 2

Am
Danza de la muerte
Si viene a verte
Que bailando te encuentre
Bailando, girando
Danza de la muerte

Am
Spin round, spin round, spin round
Vuelta, vuelta, muerte
Danza de la muerte
Bailando, girando
Danza de la muerte
Vuelta, vuelta, muerte
Danza de la muerte
Bailala 
Добавлено: 31.08.2013
Другие материалы по этой песне:
  • Аккорды и текст

Страница создана 31.08.2013
http://primanota.ru/calexico/roka-chords.htm
Привет, Гость.
Предлагаем пройти революционный курс по гитаре.
Подарок от PrimaNota.Ru, забирай!