PrimaNota.ru - самый крупный в мире бесплатный архив песенных текстов, аккордов, табулатур и нот


Calexico - Minas De Cobre For Better Metal - таба, видео

Регистрация Запомнить меня
Войти через:  Facebook Google Twitter Vk Yandex Mail.ru

Calexico - Minas De Cobre For Better Metal - таба, видео

Печатать
Просмотров: 144
Авторы музыки: Joey Burns
Авторы текста: Joey Burns
Intro

---0--0----0----0----0---0----0----0----0----0----0----0----0---0----0------|
----------------------------------------------------------------------------|
---1--1/2--2/4--4/2--2--2/4--4/5-5/1--1---1/2--2/4--4/2--2---2/4--4/55/4--4-|
----------------------------------------------------------------------------|
----------------------------------------------------------------------------|
-0----------------------------------------0---------------------------------|

                           E                 Dm   F       E             E

-0----0----0----0---0-----7--(7)--7--7---7\-1--1/5--5--5/4--4--4---4---0-|
--------------------------9--(9)--9--9---9\-3--3/6--6--6/5--5--5---5---0-|
-4/5--5----5/4--4---4---4/9--(9)--9--9---9\----------------------------1-|
-------------------------------------------------------------------------|
-------------------------------------------------------------------------|
-----------------------------------------------------------------0---0---|


    E                 Dm   F       E           Dm

----7--(7)--7--7---7\-1--1/5--5--5/4--4--4---4/1--1--1-----1----1-|
----9--(9)--9--9---9\-3--3/6--6--6/5--5--5---5/3--3--3----3----3--|
--4/9--(9)--9--9---9\--------------------------------2---2----2---|
--------------------------------------------------------0----0----|
------------------------------------------------------------------|
------------------------------------------------------------------|


 E
-------------|
-------------|
---2---2---2-|
---------2---|
-0---4-------|
p.s. yeah colton...i did happen to tab this..i am pretty good at this if you didn't 
love your brother caden
Добавлено: 11.05.2012
Другие материалы по этой песне:

Страница создана 25.04.2012
http://primanota.ru/calexico/minas-de-cobre-for-better-metal-chords.htm
Привет, Гость.
Предлагаем пройти революционный курс по гитаре.
Подарок от PrimaNota.Ru, забирай!