PrimaNota.ru - самый крупный в мире бесплатный архив песенных текстов, аккордов, табулатур и нот


Calexico - Algiers - таба, видео

Регистрация Запомнить меня
Войти через:  Facebook Google Twitter Vk Yandex Mail.ru

Calexico - Algiers - таба, видео

Печатать
Просмотров: 149
Уроки эстрадного вокала в Санкт-Петербурге
This is my first tab. Hope you enjoy it.

-------------------------------------------------------------------------------
                             Algiers - Calexico
-------------------------------------------------------------------------------
Tabbed by: Tihacker

Tuning: Standard

e|-8-------8----8p9--8--8-------8----8p9--8--6-------6----6p8--6--4-------4--|
B|------9--------------------8--------------------6--------------------4-----|
G|---10-------------------8--------------------6--------------------5--------|
D|---------------------------------------------------------------------------|
A|---------------------------------------------------------------------------|
E|---------------------------------------------------------------------------|

e|--------3------------------------------------------------------------------|
B|-----5---------------------------------------------------------------------|
G|--5------------------------------------------------------------------------|
D|---------------------------------------------------------------------------|
A|---------------------------------------------------------------------------|
E|---------------------------------------------------------------------------|

then repeat, but just before play the first note of the second verse, slide from 3 
to 8 of the e chord.

************************************

| /   slide up
| \   slide down
| h   hammer-on
| p   pull-off
| ~   vibrato
| +   harmonic
| x   Mute note
| b   Bend
| pb  Pre-bend
| br  Bend release
| pbr Pre-bend release
| brb Bend release bend

************************************
Добавлено: 29.07.2013
Другие материалы по этой песне:
  • Аккорды и текст

Страница создана 29.07.2013
http://primanota.ru/calexico/algiers-chords.htm
Привет, Гость.
Предлагаем пройти революционный курс по гитаре.
Подарок от PrimaNota.Ru, забирай!