PrimaNota.ru - самый крупный в мире бесплатный архив песенных текстов, аккордов, табулатур и нот


Calabrese - Zombie I - таба, видео

Регистрация Запомнить меня
Войти через:  Facebook Google Twitter Vk Yandex Mail.ru

Calabrese - Zombie I - таба, видео

Печатать
Просмотров: 187
CALABRESE - ZOMBIE I

Tabbed by: Savas Varadas (samhain_138@hotmail.com)

Tuning: Standard (E A D G B E)

Follow the song for the rythmn changes

"Good midnight to you.  You are here at the invitation of the Young
American Mystic Cult of Horror."

Intro
E|-------------------------------------------------------------------||
B|-------------------------------------------------------------------||
G|-------------------------------------8---7-------------8---7-------||
D|---------------------------------5---8---7---6---8-5---8---7---6--8||
A|-----4-------4-------4-------4---5---6---5---6---8-5---6---5---6--8||
E|-3-------6-------3-------6-------3-----------4---6-3-----------4--6||

Verse
E|-------------------------------------------------------------------||
B|-------------------------------------------------------------------||
G|-----8---5----------8---5----------8---5----------8---5------------||
D|-5---8---5------5---8---5------5---8---5------5---8---5------------||
A|-5---6---3------5---6---3------5---6---3------5---6---3------------||
E|-3--------------3--------------3--------------3--------------------||

Chorus
E|-------------------------------------------------------------------||
B|-------------------------------------------------------------------||
G|---------5---8-----------5---8-----------5---8-----------5---8-----||
D|-5---8---5---8---5---8---5---8---5---8---5---8---5---8---5---8-----||
A|-5---8---3---6---5---8---3---6---5---8---3---6---5---8---3---6-----||
E|-3---6-----------3---6-----------3---6-----------3---6-------------||

Bridge
E|-------------------------------------------------------------------||
B|-------------------------------------------------------------------||
G|-------------------------------------8---7-------------8---7-------||
D|---------------------------------5-----------6---8-5-----------6---||
A|-----4-------4-------4-------4---5---6---5---6---8-5---6---5---6---||
E|-3-------6-------3-------6-------3-----------4---6-3-----------4---||

E|--------------------------------------------10---------------------||
B|------------------------------------------------11-----------------||
G|-----12----------13---13\12/13---12-----------------12-------------||
D|-8-----------------------------------------------------------------||
A|-8---10----------11---11\10/11---10--------------------------------||
E|-6-----------------------------------------------------------------||

Verse 2
E|-------------------------------------------------------------------||
B|-------------------------------------------------------------------||
G|-----8---7---8-------8---7---8-------8---7---8-------8---7---8-----||
D|-5---8---7---8---5---8---7---8---5---8---7---8---5---8---7---8-----||
A|-5---6---5---6---5---6---5---6---5---6---5---6---5---6---5---6-----||
E|-3---------------3---------------3---------------3-----------------||

Chorus 2
E|-------------------------------------------------------------------||
B|-------------------------------------------------------------------||
G|---------5---8-----------5---8-----------5---8-----------5---8-----||
D|-5---8---5---8---5---8---5---8---5---8---5---8---5---8---5---8-----||
A|-5---8---3---6---5---8---3---6---5---8---3---6---5---8---3---6-----||
E|-3---6-----------3---6-----------3---6-----------3---6-------------||

Outro
E|---------------------------------||
B|---------------------------------||
G|---------------------------------||
D|-------------------5-------------||
A|-----6---5---------5-------------||
E|-3-----------4---6-3-------------||
Добавлено: 03.06.2012
Другие материалы по этой песне:

Страница создана 03.06.2012
http://primanota.ru/calabrese/zombie-i-chords.htm
Привет, Гость.
Предлагаем пройти революционный курс по гитаре.
Подарок от PrimaNota.Ru, забирай!