PrimaNota.ru - самый крупный в мире бесплатный архив песенных текстов, аккордов, табулатур и нот


Calabrese - Saturday Night Of The Living Dead - таба, видео

Регистрация Запомнить меня
Войти через:  Facebook Google Twitter Vk Yandex Mail.ru

Calabrese - Saturday Night Of The Living Dead - таба, видео

Печатать
Просмотров: 139
Calabrese - Saturday of the Living Dead

By: skyturnedred@gmail.com

Standard tuning: EADGBe

p = pull-off
\ = slide down
. = Palm-mute

INTRO:
|--------------------------|
|--------------------------|
|--------------------------|
|--------------------------| x3
|----77----77-8-8-77-55----|
|-55----55--------------88-|

|-------------------------|
|-------------------------|
|-------------------------|
|-------------------------|
|------------------666666-|
|-5-8p5-8p5-5-5h7--444444-|

|--------------------------|
|--------------------------|
|--------------------------|
|--------------------------|
|----77----77-8-8-77-55----|
|-55----55--------------88-|

|--------------------------|
|--------------------------|
|--------------------------|
|-----------------55-------|
|----77----77-8-8----88-77-|
|-55----55-----------------|

|--------------------------|
|--------------------------|
|--------------------------|
|--------------------------|
|----77----77-8-8-77-55----|
|-55----55--------------88-|

|-------------------------|
|-------------------------|
|-------------------------|
|-------------------------|
|------------------666666-|
|-5-8p5-8p5-5-5h7--444444-|


VERSE:
|--------------------------------------------------------|
|--------------------------------------------------------|
|------------10----------7------10-----------------------|
|-7----------10----------7------10-------7---------------|
|-7-----------8-88888888-5-5555--8-8888--7------88-8-7\--|
|-5-55555555-----------------------------5-5555----------|
    ........    ........   ....    ....    ....

|-----------------------------------------------------|
|-----------------------------------------------------|
|------------10----------7------10-------9-99999999---|
|-7----------10----------7------10-------9-99999999---|
|-7-----------8-88888888-5-5555--8-8888--7-77777777---|
|-5-55555555------------------------------------------|
    ........    ........   ....    ....    


CHORUS:
|-----------------------------|
|-----------------------------|
|---------------7777-10101010-|
|-7777-10101010-7777-10101010-| x4
|-7777-10101010-5555--8-8-8-8-|
|-5555--8-8-8-8---------------|


Repeat INTRO (first half)
Repeat VERSE
Repeat CHORUS


BRIDGE:
|----------------------|
|----------------------|
|------5555------7777--|
|-7777-5555-5555-7777--|
|-7777-3333-5555-5555--|
|-5555------3333-------|

|----------------------|
|----------------------|
|------5555------------|
|-7777-5555-5555-5555--|
|-7777-3333-5555-5555--|
|-5555------3333-3333--|


|------------------------------|
|------------------------------|   (Something like
|------------------------------|    this.)
|------------------------------| x4
|------------------------------|
|-5-5555-4-4444-1-1111-0-0000--|


Repeat CHORUS
Repeat INTRO

End in: 
|--------|
|--------|
|--------|
|-7\-----|
|-7\-----|
|-5\-----|
Добавлено: 12.05.2012
Другие материалы по этой песне:
  • Аккорды и текст

Страница создана 12.05.2012
http://primanota.ru/calabrese/saturday-night-of-the-living-dead-chords.htm
Привет, Гость.
Предлагаем пройти революционный курс по гитаре.
Подарок от PrimaNota.Ru, забирай!