PrimaNota.ru - самый крупный в мире бесплатный архив песенных текстов, аккордов, табулатур и нот


Calabrese - Resurrection - бас-таба, видео

Регистрация Запомнить меня
Войти через:  Facebook Google Twitter Vk Yandex Mail.ru

Calabrese - Resurrection - бас-таба, видео

Печатать
Просмотров: 155
submitted by Robin Graves

Intro(4x)

G--------------------------|
D----------666-5-555-------|
A-3-333333-----------------|
E--------------------------|

Fifth time play this

G---------------------|
D----------666-8-6-5--|
A-3-333333------------|
E---------------------|

pre-verse

G-------------------------------------------------|
D-------------------------------------------------|
A-3-3333333-666-555-666---------------------------|
E-----------------------4-444444-7-777777—--------|

Verse:

G---------------------------------|
D---------------------------------|
A-3-333333333---------------------|
E-------------4-444444444—--------|

Post verse:

G-------------------------|
D-------------------------|
A-3-5-6-5-----------------|
E---------4-444444444-----|

Chorus:

G-------------------------------------------------|
D-------------------------------------------------|
A-3-3333333-6-6666666-----------------------------|
E---------------------4-4444444-1-1111111—--------|

Bridge pt. 1

G-------------------------------------------------|
D-------------------------------------------------|
A-3-3333333-6-6666666-----------------------------|
E---------------------4-4444444-1-1111111—--------|

Bridge pt. 2

G-----------------------------------------|
D-----------------------------------------|
A-3-3333333-666-555-666-------------------|
E-----------------------4-444444-7-777777-|

Bridge pt. 3

G---------------------------------------------------|
D---------------------------------------88-66-55-6--|
A-3~-6-5-6~------------6~-5-6-9-9999999-------------|
E-----------7-7777777-------------------------------|

End Chorus:

G-----------------------------------------------------|
D-----------------------------------------------------|
A-3-3333333-6-6666666---------------------------3~----|
E---------------------4-4444444-1-11111-3-33333-------|

in part 3 of the bridge i'm not sure if the notes are played many times or just once.
Добавлено: 29.06.2012
Другие материалы по этой песне:
  • Аккорды и текст

Страница создана 29.06.2012
http://primanota.ru/calabrese/resurrection-chords.htm
Привет, Гость.
Предлагаем пройти революционный курс по гитаре.
Подарок от PrimaNota.Ru, забирай!