PrimaNota.ru - самый крупный в мире бесплатный архив песенных текстов, аккордов, табулатур и нот


Calabrese - Death Of Me - таба, видео

Регистрация Запомнить меня
Войти через:  Facebook Google Twitter Vk Yandex Mail.ru

Calabrese - Death Of Me - таба, видео

Печатать
Просмотров: 198
Уроки эстрадного вокала в Санкт-Петербурге
Calabrese - Death of Me

Tabbed by: Savas Varadas (samhain_138@hotmail.com)

Tuning: Standard (E A D G B E)

Follow the song for the rythmn changes

Intro
E|-------------------------------------------------------------------||
B|-------------------------------------------------------------------||
G|-------------------------------------------------------------------||
D|-8---8-8/10b11b10--8---11-----8---8-8/10b11b10--8---10-------------||
A|-------------------9----------------------------9---11-------------||
E|-------------------------------------------------------------------||
                                                     
E|-------------------------------------------------------------------||
B|-------------------------------------------------------------------||
G|-------------------------------------------------------------------||
D|-8---8-8/10b11b10--8---11-----8---8-8/10b11b10--8---8-8-8-8-8-8--10||
A|-------------------9----------------------------9---9-9-9-9-9-9--11||
E|-------------------------------------------------------------------||
                                                      <---PM---->
Verse 1
E|-------------------------------------------------------------------||
B|-------------------------------------------------------------------||
G|-3---5--------6---3---5-----------3---5-------6---3---5------------||
D|-3---5---4----6---3---5---4---6---3---5---4---6---3---5---4---6----||
A|-1---3---4----4---1---3---4---6---1---3---4---4---1---3---4---6----||
E|---------2----------------2---4-----------2---------------2---4----||
   <----------PM---------------->

Chorus 1
E|-------------------------------------------------------------------||
B|-------------------------------------------------------------------||
G|---------------------6--4-------------------------6--4-------------||
D|-8------6------4-----6--4---8------6-------4------6--4-------------||
A|-8------6------4-----4--2---8------6-------4------4--2-------------||
E|-6------4------2------------6------4-------2-----------------------||

Transition
E|-------------------------------------------------------------------||
B|-------------------------------------------------------------------||
G|-3----5---------6----3----5----------------------------------------||
D|-3----5----4----6----3----5----4----6------------------------------||
A|-1----3----4----4----1----3----4----6------------------------------||
E|-----------2-------------------2----4------------------------------||
                                 <-PM->
Verse 2
E|-------------------------------------------------------------------||
B|-------------------------------------------------------------------||
G|-3---5--------6---3---5-----------3---5-------6---3---5------------||
D|-3---5---4----6---3---5---4---6---3---5---4---6---3---5---4---6----||
A|-1---3---4----4---1---3---4---6---1---3---4---4---1---3---4---6----||
E|---------2----------------2---4-----------2---------------2---4----||
   <---PM-----PM------PM------PM-------PM--------PM-------PM---->

Chorus 2
E|-------------------------------------------------------------------||
B|-------------------------------------------------------------------||
G|---------------------6--4-------------------------6--4-------------||
D|-8------6------4-----6--4---8------6-------4------6--4-------------||
A|-8------6------4-----4--2---8------6-------4------4--2-------------||
E|-6------4------2------------6------4-------2-----------------------||

Bridge
E|-------------------------------------------------------------------||
B|-------------------------------------------------------------------||
G|------------10--9---5---6-----------------------------------/8-----||
D|-8-----------------------------8------3---4---8------3--4----------||
A|-8----------8---7---3---4------8------3---4---8------3--4---/6-----||
E|-6-----------------------------6------1---2---6------1--2----------||

E|-------------------------------------------------------------------||
B|-------------------------------------------------------------------||
G|-------------6--5--------------------------------------6-6---6-----||
D|-8---6---4---6--5---(repeat three times)---8---6---4---6-6---6-----||
A|-8---6---4---4--3--------------------------8---6---4---4-4---4-----||
E|-6---4---2---------------------------------6---4---2---------------||

E|---------------------------------||
B|---------------------------------||
G|-5-5---5-------------------------||
D|-5-5---5---8---------------------||
A|-3-3---3---8---------------------||
E|-----------6---------------------||
Добавлено: 02.06.2012
Другие материалы по этой песне:
  • Аккорды и текст

Страница создана 02.06.2012
http://primanota.ru/calabrese/death-of-me-chords.htm
Привет, Гость.
Предлагаем пройти революционный курс по гитаре.
Подарок от PrimaNota.Ru, забирай!