PrimaNota.ru - самый крупный в мире бесплатный архив песенных текстов, аккордов, табулатур и нот


Calabrese - Crizila - таба, видео

Регистрация Запомнить меня
Войти через:  Facebook Google Twitter Vk Yandex Mail.ru

Calabrese - Crizila - таба, видео

Печатать
Просмотров: 182
CALABRESE - CRIZILA

Tabbed by: Savas Varadas (samhain_138@hotmail.com)

Tuning: Standard (E A D G B E)

Follow along with the song for the rythmn

Intro
E|-------------------------------------------------------------------||
B|-------------------------------------------------------------------||
G|-----5---3---7-------5---3-----------------------------------------||
D|-5---5---3---7---5---5---3---3-------------------------------------||
A|-5---3---1---5---5---3---1---3-------------------------------------||
E|-3---------------3-----------1-------------------------------------||

Chorus 1
E|-------------------------------------------------------------------||
B|-------------------------------------------------------------------||
G|-----5---3---7-------5---3-----------------------------------------||
D|-5---5---3---7---5---5---3---3--(repeat)---------------------------||
A|-5---3---1---5---5---3---1---3-------------------------------------||
E|-3---------------3-----------1-------------------------------------||

Verse - Played four times
       PM.........      PM.........      PM.........      PM.........
E|-------------------------------------------------------------------||
B|-------------------------------------------------------------------||
G|-------------------3--3-3-3-3-3-3--------------------5--5-5-5-5-5-5||
D|-5---5-5-5-5-5-5---3--3-3-3-3-3-3---3--3-3-3-3-3-3---5--5-5-5-5-5-5||
A|-5---5-5-5-5-5-5---1--1-1-1-1-1-1---3--3-3-3-3-3-3---3--3-3-3-3-3-3||
E|-3---3-3-3-3-3-3--------------------1--1-1-1-1-1-1-----------------||

Chorus 2 *See Figure 1
E|-------------------------------------------------------------------||
B|-------------------------------------------------------------------||
G|-----5---3---7-------5---3-----------------------------------------||
D|-5---5---3---7---5---5---3---3--(repeat)---------------------------||
A|-5---3---1---5---5---3---1---3-------------------------------------||
E|-3---------------3-----------1-------------------------------------||

Figure 1 - Played throughout chorus
E|----------------||
B|----------------||
G|--12------------||
D|----------------||
A|--10------------||
E|----------------||

Verse - First part played three times
       PM.........      PM.........      PM.........      PM.........
E|-------------------------------------------------------------------||
B|-------------------------------------------------------------------||
G|-------------------3--3-3-3-3-3-3--------------------5--5-5-5-5-5-5||
D|-5---5-5-5-5-5-5---3--3-3-3-3-3-3---3--3-3-3-3-3-3---5--5-5-5-5-5-5||
A|-5---5-5-5-5-5-5---1--1-1-1-1-1-1---3--3-3-3-3-3-3---3--3-3-3-3-3-3||
E|-3---3-3-3-3-3-3--------------------1--1-1-1-1-1-1-----------------||

       PM.........      PM.........      PM.........      
E|-------------------------------------------------------------------||
B|-------------------------------------------------------------------||
G|-------------------3--3-3-3-3-3-3--------------------5-------------||
D|-5---5-5-5-5-5-5---3--3-3-3-3-3-3---3--3-3-3-3-3-3---5-------------||
A|-5---5-5-5-5-5-5---1--1-1-1-1-1-1---3--3-3-3-3-3-3---3-------------||
E|-3---3-3-3-3-3-3--------------------1--1-1-1-1-1-1-----------------||

Chorus 3
E|-------------------------------------------------------------------||
B|-------------------------------------------------------------------||
G|-----5---3---7-------5---3-----------------------------------------||
D|-5---5---3---7---5---5---3---3--(repeat)---------------------------||
A|-5---3---1---5---5---3---1---3-------------------------------------||
E|-3---------------3-----------1-------------------------------------||

Bridge - Guitar 1
E|---------------------------------||
B|---------------------------------||
G|-8---7---------------------------||
D|-8---7---8---7----(x4)-----------||
A|-6---5---8---7-------------------||
E|---------6---5-------------------||

Bridge - Guitar 2
E|-------------------------------------------------------------------||
B|-------------------------------------------------------------------||
G|-8---7-------------8/10\7------------8/10/12\7---------------------||
D|---------8----7-------------8/10\7---------------8/10\8\7----------||
A|-6---5-------------6/8-\5------------6/8-/10\5---------------------||
E|---------6----5-------------6/8-\5---------------6/8-\6\5----------||

E|-------------------------------------------------------------------||
B|-------------------------------------------------------------------||
G|-8/10/12\7-----15---14---------------------------------------------||
D|-------------------------------------------------------------------||
A|-6/8-/10\5-----13---12---------------------------------------------||
E|-------------------------------------------------------------------||

Chorus 3 *See Figure 1
E|-------------------------------------------------------------------||
B|-------------------------------------------------------------------||
G|-----5---3---7-------5---3-----------------------------------------||
D|-5---5---3---7---5---5---3---3--(repeat four times)----------------||
A|-5---3---1---5---5---3---1---3-------------------------------------||
E|-3---------------3-----------1-------------------------------------||
Добавлено: 28.02.2012
Другие материалы по этой песне:
  • Аккорды и текст

Страница создана 28.02.2012
http://primanota.ru/calabrese/crizila-chords.htm
Привет, Гость.
Предлагаем пройти революционный курс по гитаре.
Подарок от PrimaNota.Ru, забирай!