PrimaNota.ru - самый крупный в мире бесплатный архив песенных текстов, аккордов, табулатур и нот


Cake - Multiply The Heartaches - таба, видео

Регистрация Запомнить меня
Войти через:  Facebook Google Twitter Vk Yandex Mail.ru

Cake - Multiply The Heartaches - таба, видео

Печатать
Просмотров: 126
Intro
e--------------------------------------------------|I
B--------------------------------------------------|I
G--------------------------------------------------|I
D--------------------------------------------------|I
A-------2-4-2-------2-4-2-------2-4-2-------2-4-2--|I
E-0-2-4-------0-2-4-------0-2-4-------0-2-4--------|I

Verse 1
e---------------------------------------------------------------------------|
B---------------------------------------------------------------------------|
G---------------------------------------------------------------------------|
D--------------------------------2-4-2-------2-4-2-------4-6-4-------4-6-4--|
A-------2-4-2-------2-4-2--0-2-4-------0-2-4-------2-4-6-------2-4-6--------|
E-0-2-4-------0-2-4---------------------------------------------------------|

e-------------------------|I
B-------------------------|I
G-------------------------|I
D------4-6-4--------------|I
A-2-4-6------------2-4-2--|I
E------------0-2-4--------|I

Verse 2
e----------------------------------------------------------------------------|
B----------------------------------------------------------------------------|
G--------------------------------2-2---2-------------------------------4-4-4-|
D--------------------------------2-2h4-2-------2-4-2-------4-6-4-------4-4h6-|
A-------2-4-2-------2-4-2--0-2-4---------0-2-4-------2-4-6-------2-4-6-------|
E-0-2-4-------0-2-4----------------------------------------------------------|

e------------------------------------|I
B------------------------------------|I
G-4----------------------------------|I
D-4--------4-6-4---------------------|I
A---2-4-6------------2-4-2-----------|I
E----------------2-4------4-2b3r2-0--|I

Chorus
e----------------------------------------------------------------------------|
B----------------------------------------------------------------------------|
G-------2--(2)-------------------------------------------4--(4)--------------|
D-------2h4p2-------2-4-2--------------------------------4h6p4-------4-6-4---|
A-0-2-4-------0-2-4-------------2-4-2-------2-4-2-2-4-6--------2-4-6---------|
E-------------------------0-2-4-------0-2-4--------------------------------0-|

e----------------------------------------------------------------------------|
B----------------------------------------------------------------------------|
G-------------------------2--(2)---------------------------------------------|
D-------------------------2h4p2--------2-4-2---------------------------------|
A-----2-4-2----------0-2-4-------0-2-4-------------2-4-2---------------2-4-2-|
E-2-4------4-2b3r2-0-------------------------0-2-4-------4-0-2-1-0-2-4-------|

e--------------------------------------------|I
B--------------------------------------------|I
G-------4-4-4--------------------------------|I
D-------4-4h6-------2-4-2--------------------|I
A-2-4-6-------2-4-6-------------2-4----------|I
E-------------------------0-2-4-----2b3r2-0--|I

SOLO
e---------------------------------------------------------------------------|
B---------------------------------------------------------------------------|
G---------------------------------------------------------------------------|
D---------------------------------------------------------------------------|
A------------------------2--4-2-0----0-2-0-2h4----2--2-2-2--2--4-2--2--2----|
E-2h4---2b3r2-0-2h4--5-4-----------4----------------------------------------|

e---------------------------------------------------------------------------|
B---------------------------------------------------------------------------|
G---------------------------------------------------------------------------|
D---------------------------------------------------------------------------|
A-2--4-2-------------------------------------------0-2-1-2-1-2-4-2-------2--|
E--------0--2b3-2b3r2-0-2h4---0-0-0-0-0-2-4-3-4-3-4----------------4-0-4----|

e---------------------------------------------------------------------------|
B---------------------------------------------------------------------------|
G---------------------------------------------------------------------------|
D---------------------0-2-1-2-1-2-4-2------2--------------1-0-1-0-1-2-4-3-4-|
A-0--0--0-2-4-3-4-3-4-----------------4-0-4---2-1-2-1-2-4-------------------|
E---4--4--------------------------------------------------------------------|

e--------------------------------------|I
B--------------------------------------|I
G-----1------------1-------------------|I
D-3-4---4-1---1-4---0---0--------------|I
A-----------2--------2----4-2-0--------|I
E---------------------0---------4-2-0--|I

End
e---------------------------------------------------------------------------|
B---------------------------------------------------------------------------|
G------------------------------------------------------------------4-4---4--|
D-------2-2h4-2-------2-4-2----------------------------------------4-4h6-4--|
A-0-2-4---------0-2-4--------------2-4-2---------------2-4-2-2-4-6----------|
E---------------------------0--2-4-------4-0-2-1-0-2-4----------------------|

e-------------i------------------------|I
B-------------i------------------------|I
G-------------i------------------------|I
D-------4-6-4-i---------------------I--| X2
A-2-4-6-------i-------2-4--------------|I
E-------------i-0-2-4------2b3r2-0-----|I

Second Ending (Insert after "i"s)
e-------------------------------|I
B---------------------------/9--|I
G--------------------0-1-4--/9--|I
D-------2-4---------------------|I
A-0-2-4-------------------------|I
E-----------2b3r2-0-------------|I
Добавлено: 15.05.2012
Другие материалы по этой песне:
  • Аккорды и текст

Страница создана 15.05.2012
http://primanota.ru/cake/multiply-the-heartaches-chords.htm
Привет, Гость.
Предлагаем пройти революционный курс по гитаре.
Подарок от PrimaNota.Ru, забирай!