PrimaNota.ru - самый крупный в мире бесплатный архив песенных текстов, аккордов, табулатур и нот


Cajun Dance Party - Buttercups - бас-таба, видео

Регистрация Запомнить меня
Войти через:  Facebook Google Twitter Vk Yandex Mail.ru

Cajun Dance Party - Buttercups - бас-таба, видео

Печатать
Просмотров: 39
Looking for the buttercups, and I won't say too much, 

---------------------------------------------------------------
---------------------------------------------------------------
----------------------------------------------------------7----
-0------------------------------7---------------------7-9----0-

And then it comes a new disease and I won't let it grow, 
---------------------------------------------------------------
---------------------------------------------------------------
----------------------------------------------------------7----
-0----------------------------------7-----------------7-9----0-

But how many roads have you used for gold?

---------------------------------------------------------------
---------------------------------------------------------------
---------------------------------------------------------------
-0-----------------------4----5----4---0-----------------------

---------------------------------------------------------------
---------------------------------------------------------------
----------7-7-5-------------5--------7-7-5-----7---------------
-0--------------0-------7-7---0-------------0------------------


Oh uh oh, where do we go?

---------------------------------------------------------------
---------------------------------------------------------------
-12--12-11-----------------------------------------------------
------------11----11-12-12-------------------------------------

Before we slide. Before we slide.            Before we slide.

---------------------------------------------------------------
---------------------------------------------------------------
-12----14------------------------------------------------------
------------0----------------5----------------5-0-5-7-8--0-----


I have to say, that it's not too late, 

-----------------------------------------------------------------
----------------------------------------------7-7-6-----7-6------
--------------------------------7---------------------------7----
9---------------------------9-------5---------------5---------7--
I have to say, you can never help out too late, 

-----------------------------------------------------------------
----------------------------------------------7-7-6-----7-6------
--------------------------------7---------------------------7----
9---------------------------9-------5---------------5---------7--

Ends on open E.
Добавлено: 27.06.2016
Другие материалы по этой песне:
  • Аккорды и текст

Страница создана 27.06.2016
http://primanota.ru/cajun-dance-party/buttercups-chords.htm
Привет, Гость.
Предлагаем пройти революционный курс по гитаре.
Подарок от PrimaNota.Ru, забирай!