PrimaNota.ru - самый крупный в мире бесплатный архив песенных текстов, аккордов, табулатур и нот


Cairokee - Ethbat Makanak - аккорды и текст, видео

Регистрация Запомнить меня
Войти через:  Facebook Google Twitter Vk Yandex Mail.ru

Cairokee - Ethbat Makanak - аккорды и текст, видео

Печатать
Просмотров: 160
Ethbat Makanak
Cairokee
Song : Ethbat Makanak
Band : Cairokee
Tabbed by : Snowflakes91
Tuning : Standard

=======================================================================


[Verse]


Chords used :
     Am     Em     B11
e|---0------0------0-------------|
B|---1------0------0-------------|
G|---2------0------2-------------|
D|---2------2------1-------------|
A|---0------2------2-------------|
E|----------0--------------------|


Picking Pattern (Can be applied for all the chords) :


   Am                       Em
e|-----------0-----------|-----------0-----------|
B|------1----------------|------0----------------|
G|-----2---2-------------|-----0---0-------------|
D|-----------------------|-----------------------|
A|--0--------------------|-----------------------|
E|-----------------------|--0--------------------|

    B11                     Em
e|-----------0-----------|-----------0-----------|
B|------0----------------|------0----------------|
G|-----2---2-------------|-----0---0-------------|
D|-----------------------|-----------------------|
A|--2--------------------|-----------------------|
E|-----------------------|--0--------------------|


Am                Em                B11                       
 Em
.. Ethbat Makanak ... Hena 3enwanak .. Da el 5oof by5af mennak .. We damerak 3omroh ma 
5anak ..

Repeat until Chorus..


==================================================

[Chorus]


Chords used :
     C      Em     B11
e|---0------0------0-------------|
B|---1------0------0-------------|
G|---0------0------2-------------|
D|---2------2------1-------------|
A|---3------2------2-------------|
E|----------0--------------------|



C                 Em     C                Em
.. Kalamak mabytfehemsh .. E7sasak mabyetwesefsh ..

B11                  Em
.. Enta bet2ol karama .. w homa yrodo bmahana ..

B11                    Em
.. Enta bet2ol el 3adl .. bey2olo 3annak nadl ..



=======================================================================


[Solo]
(Note: the solo is in the key of E minor, and on that B11 chord you hit the note D# of 
the harmonic minor scale)
e|---------------------7--0--|--0--0--0--0/10--10--8--7---|
B|--------8-----10-----------|----------------------------|
G|--9--9-----9------9--------|----------------------------|
D|---------------------------|----------------------------|
A|---------------------------|----------------------------|
E|---------------------------|----------------------------|

e|--7/11--11--11--11--11--11--11/-|-/12--12--12--12--12--12--12--12\--|
B|----12--12--12--12--12--12--12/-|-/12--12--12--12--12--12--12--12\--|
G|--------------------------------|-----------------------------------|
D|--------------------------------|-----------------------------------|
A|--------------------------------|-----------------------------------|
E|--------------------------------|-----------------------------------|

e|--8--8/15--15--15--15--15--15\--|--7--7/15--15--15--15--15--15--|
B|--------------------------------|-------------------------------|
G|--------------------------------|-------------------------------|
D|--------------------------------|-------------------------------|
A|--------------------------------|-------------------------------|
E|--------------------------------|-------------------------------|

e|--15\11-11--11--11--11--11--11--11--|--11/12--12--12--12--12--12--12--|
B|------------------------------------|---------------------------------|
G|------------------------------------|---------------------------------|
D|------------------------------------|---------------------------------|
A|------------------------------------|---------------------------------|
E|------------------------------------|---------------------------------|


=======================================================================

************************************

| /   slide up
| \   slide down
| B   hammer-on
| p   pull-off
| ~   vibrato
| +   harmonic
| x   Mute note
| B   Bend
| pb  Pre-bend
| br  Bend release
| pbr Pre-bend release
| brb Bend release bend

************************************
Добавлено: 26.04.2012
Другие материалы по этой песне:
  • Аккорды и текст

Страница создана 26.04.2012
http://primanota.ru/cairokee/ethbat-makanak-chords.htm
Привет, Гость.
Предлагаем пройти революционный курс по гитаре.
Подарок от PrimaNota.Ru, забирай!