PrimaNota.ru - самый крупный в мире бесплатный архив песенных текстов, аккордов, табулатур и нот


Caifanes - Debajo de tu Piel - текст песни, бас-таба, видео

Регистрация Запомнить меня
Войти через:  Facebook Google Twitter Vk Yandex Mail.ru

Caifanes - Debajo de tu Piel - текст песни, бас-таба, видео

Печатать
Просмотров: 113
Авторы музыки: Saúl Hernández
Авторы текста: Saúl Hernández
Si pudiera...
  A             
G|------------|----14-16---|------------|------14-16----|
D|------------|------------|------------|---------------|
A|0-----------|0-0------12s|0-0---0-0-0-|0-0-12-----12s5|
E|------------|------------|------------|---------------|

  G                          A   
G|-------------|------------|------14-16-18|-----14-16-14|
D|----5--------|----5-------|--------------|---14--------|
A|-------------|------------|0-0-12--------|x-0----------|
E|3--3-3-3-----|3--3-3------|--------------|-------------|

  Abajo de tu piel...
  F             Em
G|----5------5-|----4-7s9-7-------||
D|3--3---3--3--|2--2-------10-7-5-||  Dos veces
A|-3------3----|-2----------------||
E|-------------|------------------||

  Intro...
  A
G|------14-16-18-|
D|----14---------|  Cuatro veces
A|0-12-----------|
E|---------------|

  Ven...
  A                                G
G|--------------------------------|--------------|
D|--------------------------------|----5-------5-|
A|0-0--00-12-14-16-0-0-00-12-14-12|--------------|
E|--------------------------------|3--3-3--3
Добавлено: 15.12.2013
Другие материалы по этой песне:
  • Аккорды и текст

Страница создана 24.04.2012
http://primanota.ru/caifanes/debajo-de-tu-piel-chords.htm
Привет, Гость.
Предлагаем пройти революционный курс по гитаре.
Подарок от PrimaNota.Ru, забирай!