PrimaNota.ru - самый крупный в мире бесплатный архив песенных текстов, аккордов, табулатур и нот


Cage - I Never Knew You - бас-таба, видео

Регистрация Запомнить меня
Войти через:  Facebook Google Twitter Vk Yandex Mail.ru

Cage - I Never Knew You - бас-таба, видео

Печатать
Просмотров: 232
Ohkay. heres the deal. this song does not have a bass line. the one i made up for 
it is cool, i think, but it kinda sounds out of tune. but its pretty close.

it works best with a 5 string. thats what i have so thats what ima tab. im sorry 
if this affects you learning it in anyway. =]

Heres the main verse.
G-----------------------------]
D-----------------------------]
A-----------------43----------]
E-------------------43--------]
B-0~~~1~~~3~~~33~~~---43------]

Chorus
G-----------------------------]
D-----------------------------]
A-----------------------------]
E------2/-7-6~~56-------------]
B-0~--------------------------]

Thats it. thank you and feedback would be much appreciated due to the fact that i 
made it up, and i know theres many possibilities for this song probly. =]
Добавлено: 15.05.2012
Вам также может быть интересно:
Другие материалы по этой песне:
  • Аккорды и текст

Страница создана 15.05.2012
http://primanota.ru/cage/i-never-knew-you-chords.htm
Привет, Гость.
Предлагаем пройти революционный курс по гитаре.
Подарок от PrimaNota.Ru, забирай!