PrimaNota.ru - самый крупный в мире бесплатный архив песенных текстов, аккордов, табулатур и нот


Cage - Hell Oh - бас-таба, видео

Регистрация Запомнить меня
Войти через:  Facebook Google Twitter Vk Yandex Mail.ru

Cage - Hell Oh - бас-таба, видео

Печатать
Просмотров: 156
Intro / Verse

[00:12]

G|-------------------------------------------------|
D|-------------------------------------------------|
A|----------------9--9--99868--68--68--68--68--68--|
E|---6-6-6-6-6-6-6--6--6------6---6---6---6---6--6-|
                                                        x3
G|----------------------------------------------6--|
D|-------------------------------------------------|
A|----------------9--9--99868--68--68--68--68--6-6-|
E|---6-6-6-6-6-6-6--6--6------6---6---6---6---6----|

Chorus

[00:51]

G|-----------------|
D|-----------------|     x8
A|-----------------|
E|-6-6-6-6-6-6-6-6-|

Verse

[01:04]

G|-------------------------------------------------|
D|-------------------------------------------------|
A|----------------9--9--99868--68--68--68--68--68--|
E|---6-6-6-6-6-6-6--6--6------6---6---6---6---6--6-|
                                                        x2
G|----------------------------------------------6--|
D|-------------------------------------------------|
A|----------------9--9--99868--68--68--68--68--6-6-|
E|---6-6-6-6-6-6-6--6--6------6---6---6---6---6----|

Chorus

[01:30]

G|-----------------|
D|-----------------|     x16
A|-----------------|
E|-6-6-6-6-6-6-6-6-|

Verse

[01:55]

G|-------------------------------------------------|
D|-------------------------------------------------|
A|----------------9--9--99868--68--68--68--68--68--|
E|---6-6-6-6-6-6-6--6--6------6---6---6---6---6--6-|
                                                        x2
G|----------------------------------------------6--|
D|-------------------------------------------------|
A|----------------9--9--99868--68--68--68--68--6-6-|
E|---6-6-6-6-6-6-6--6--6------6---6---6---6---6----|

Chorus

[02:21]

G|-----------------|
D|-----------------|     x16
A|-----------------|
E|-6-6-6-6-6-6-6-6-|

Outro

[02:46]

G|-------------------------------------------------|
D|-------------------------------------------------|
A|----------------9--9--99868--68--68--68--68--68--|
E|---6-6-6-6-6-6-6--6--6------6---6---6---6---6--6-|
                                                        x1
G|----------------------------------------------6--|
D|-------------------------------------------------|
A|----------------9--9--99868--68--68--68--68--6-6-|
E|---6-6-6-6-6-6-6--6--6------6---6---6---6---6----|
Добавлено: 20.04.2012
Другие материалы по этой песне:
  • Аккорды и текст

Страница создана 20.04.2012
http://primanota.ru/cage/hell-oh-chords.htm
Привет, Гость.
Предлагаем пройти революционный курс по гитаре.
Подарок от PrimaNota.Ru, забирай!