PrimaNota.ru - самый крупный в мире бесплатный архив песенных текстов, аккордов, табулатур и нот


Cage The Elephant - Japanese Buffalo - текст песни, таба, видео

Регистрация Запомнить меня
Войти через:  Facebook Google Twitter Vk Yandex Mail.ru

Cage The Elephant - Japanese Buffalo - текст песни, таба, видео

Печатать
Просмотров: 184
This is my first tab, didn't see a tab for this song on Ultimate-guitar yet so, here ya 
go. Please rate/leave feedback. Thanks!

            -fender087
_____________

[Intro]
e:------------------------------------------------------------------|
B:------------1------------------1----------------------------------|
G:---------0-----0------------2-----2-------------2-----------------|
D:------2-----------2------2----------2--------3-----3--------------|
A:---3------------------0--------------------3---------3------------|
E:----------------------------------------1-------------------------|\
                                                                       x2
e:-----------3------------------------------------------------------|/
B:------------------------------------------------------------------|
G:--------------4---------------------------------------------------|
D:--------5-------5-------------------------------------------------|
A:-----5------------------------------------------------------------|
E:--3---------------------------------------------------------------|

____________________
[Distortion]
e:-----------x----------------x---------------x--------x------------|
B:--5--------x-------5--------x--------5------x--------x------------|
G:--5-x5-----7-x5----5-x5-----7-x5-----5-x5---7-x5-----3-x2---------|x3
D:--5--------7-------5--------7--------5------7--------3------------|
A:--3--------7-------3--------7--------3------7--------3------------|
E:-----------5----------------5---------------5--------1------------|

____________________
[Chorus]
e:--------------0--------------------------------------------------|
B:--5--4-4--2---0------------------0--0----------------------------|
G:--5--4-4--2---4b- x3-------------0--0----------------------------|
D:--5--4-4--2---------------3--3---5--5----------------------------|
A:--3--2-2------------------3--3---5--5----------------------------|
E:-----------------------------------------------------------------|


e:--------------0--------------------------------------------------|
B:--5--4-4--2---0------------------0--0----------------------------|
G:--5--4-4--2---4b- x3-------------0--0----------------------------|
D:--5--4-4--2---------------3--3---5--5----------------------------|
A:--3--2-2------------------3--3---5--5----------------------------|
E:-----------------------------------------------------------------|

_______________________

[Distortion]
e:-----------x----------------x---------------x--------x------------|
B:--5--------x-------5--------x--------5------x--------x------------|
G:--5-x5-----7-x5----5-x5-----7-x5-----5-x5---7-x5-----3-x2---------|x3
D:--5--------7-------5--------7--------5------7--------3------------|
A:--3--------7-------3--------7--------3------7--------3------------|
E:-----------5----------------5---------------5--------1------------|

e:-----------x----------------x---------------x--------x------------|
B:--5--------x-------5--------x--------5------x--------x------------|
G:--5-x5-----7-x5----5-x5-----7-x5-----5-x5---7-x5-----3-x2---------|x3
D:--5--------7-------5--------7--------5------7--------3------------|
A:--3--------7-------3--------7--------3------7--------3------------|
E:-----------5----------------5---------------5--------1------------|
____________________
[Chorus]
e:--------------0--------------------------------------------------|
B:--5--4-4--2---0------------------0--0----------------------------|
G:--5--4-4--2---4b- x3-------------0--0----------------------------|
D:--5--4-4--2---------------3--3---5--5----------------------------|
A:--3--2-2------------------3--3---5--5----------------------------|
E:-----------------------------------------------------------------|


e:--------------0--------------------------------------------------|
B:--5--4-4--2---0------------------0--0----------------------------|
G:--5--4-4--2---4b- x3-------------0--0----------------------------|
D:--5--4-4--2---------------3--3---5--5----------------------------|
A:--3--2-2------------------3--3---5--5----------------------------|
E:-----------------------------------------------------------------|

___________
[Slow part]

[Lead]

e:--->12-------------------------------|
B:-------13-13>17----------------------|
G:-----------------14-14>16------------|
D:-------------------------------------|
A:-------------------------------------|
E:-------------------------------------|

[Rhythm]
e:------------------------------------------------------------|
B:---5------1-------------------------------------------------|
G:---5-x4---2-x4----------------------------------------------|x4
D:---5------2------3-------5----------------------------------|
A:---3------0------3--x4---5-x4-------------------------------|
E:-----------------1-------3----------------------------------|

e:------------------------------------------------------------|
B:--5-----4-------0-------------------------------------------|
G:--5-x6--4---2---4b- x3--------------------------------------|
D:--5-----4---2--------------3-----5-----3-----5--------------|
A:--3-----2------------------3-x6--5-x6--3-x6--5-x6-----------|
E:---------------------------1-----3-----1-----3--------------|

e:------------------------------------------------------------|
B:------------------------------------------------------------|
G:---5--------------------------------------------------------|x4
D:---5-x14---3------5-----------------------------------------|
A:---3-------3-x7---5-x7--------------------------------------|
E:-----------1------3-----------------------------------------|

e:------------------------------------------------------------|
B:------------------------------------------------------------|
G:---5--------------------------------------------------------|x4
D:---5-x14---3------5-----------------------------------------|
A:---3-------3-x7---5-x7--------------------------------------|
E:-----------1------3-----------------------------------------|

e:---x----------------------------------------------------------------|
B:---x----------------------------------------------------------------|
G:---0----------------------------------------------------------------|
D:---2----------------------------------------------------------------|
A:---2----------------------------------------------------------------|
E:---0-------------{fender087}----------------------------------------|
Добавлено: 28.06.2012
Другие материалы по этой песне:
  • Аккорды и текст

Страница создана 28.06.2012
http://primanota.ru/cage-the-elephant/japanese-buffalo-chords.htm
Привет, Гость.
Предлагаем пройти революционный курс по гитаре.
Подарок от PrimaNota.Ru, забирай!