PrimaNota.ru - самый крупный в мире бесплатный архив песенных текстов, аккордов, табулатур и нот


Caedmons Call - Just Dont Want Coffee - таба, видео

Регистрация Запомнить меня
Войти через:  Facebook Google Twitter Vk Yandex Mail.ru

Caedmons Call - Just Dont Want Coffee - таба, видео

Печатать
Просмотров: 137
1. Close to Autumn


tuning: dropped "D" (tune low E string down to D)
Guitar: Capo 1st fret


D2       000230
Bm7(4)   x20230
Asus     x02230
C2(6)    x30230
G5       5x0033


Intro-D2(4x)


D2 Bm7(4) Asus(2x)


D2 Asus(4x)


D2                    Bm7(4)             C2(6)
WHEN I'M COLD AND ALONE ALL I WANT IS MY FREEDOM,
Bm7(4)       Asus            D2
AND A SUDDEN GUST OF GRAVITY I STOP WAILING AND KICKING
Bm7(4)                 C2(6)   Bm7(4)
JUST TO LET THIS WATER COVER ME
Asus
COVER ME
D2                    Bm7(4)                    C2(6)      Bm7(4)
ONLY IF I REST MY ARMS, REST MY MIND YOU'LL OVERCOME ME AND
     Asus
SWELL UP AROUND ME
D2                     Bm7(4)                     C2(6)
WITH MY FIGHTING SO VAIN WITH MY VANITY SO FOUGHT,
            Bm7(4)  Asus
I'M ROLLING OVER


-Chorus-
          Bm7(4)        G5
'CAUSE IN JUST THE SAME WAY
               Asus
THAT THE STREAM BECOMES SWOLLEN
Bm7(4)           G5           Asus
SWOLLEN WITH COLD UP OVER THE GROUND
             Bm7(4)      G5
WHEN MY HEART DRAWS CLOSE
           Asus       C2(6) Bm7(4) C2(6)
TO THE CLOSE OF AUTUMN
         Asus    D2 Bm7(4) Asus
YOUR LOVE ABOUNDS


D2 Asus(4x)


-Verse 2-
D2
ALL THE TIME I'M THINKING
Bm7(4)                 C2(6) Bm7(4)
WONDERING HOW WOULD IT BE
  Asus
TO BREATH IN DEEP
D2
GUESS I NEED TO BE CAREFUL
Bm7(4)           C2(6)
WHEN I ASK FOR A DRINK
Bm7(4)        Asus
JUST MIGHT GET WHAT I ASK FOR
D2                            Bm7(4)            
AND I KNOW JUST WHAT YOU'D SAY TO ME
                   C2(6)  Bm7(4)      
THAT'S WHY I DON'T ASK YOU
    Asus
WHAT WOULD I ASK YOU?
D2                    Bm7(4)
LIKE A BULL-HEADED BOY THESE DAYS
           C2(6)      Bm7(4)
CRYING "MY TOY'S GONE"
       C2(6)        Asus
YOU'RE SHINY AND NEW


-Chorus-
          Bm7(4)        G5
'CAUSE IN JUST THE SAME WAY
               Asus
THAT THE STREAM BECOMES SWOLLEN
Bm7(4)           G5           Asus
SWOLLEN WITH COLD UP OVER THE GROUND
             Bm7(4)      G5
WHEN MY HEART DRAWS CLOSE
           Asus       C2(6) Bm7(4) C2(6)
TO THE CLOSE OF AUTUMN
         Asus    D2 Bm7(4) Asus
YOUR LOVE ABOUNDS


D2 Bm7(4) C2(6) Asus(2x)


C2(6) Bm7(4) C2(6) Asus


-Verse 3-
D2                           
GUESS I'LL DROP MY ANGER HERE
Bm7(4)             C2(6)
BEFORE I FLOAT AWAY
Bm7(4)        Asus
AND THE CHAINS AROUND ME
D2
AN AWFUL LOT OF TALKING
Bm7(4)                    C2(6)
I DON'T LEAVE YOU MUCH TO SAY
Bm7(4)    Asus 
YOU DIDN'T EVER LEAVE ME
Bm7(4)              C2(6)
AND MY GREATEST FEAR
Bm7(4)                 C2(6)
WAS YOU'D LEAVE ME HERE
Bm7(4)                  Asus
A LONG TIME BACK MY FEET
                      D2 Asus
COULD TOUCH THE BOTTOM


D2 Asus(5x) D2             



2. Not The Land


E2      024100
Am9/E   035200
C2      x32030
G       320033
E       022100
D       x00232
A       x02220
Bb6     x10033


Guitar: Capo 5th fret


-INTRO-
E2  Am9/E  E2  Am9/E


-VERSE 1-
E2           Am9/E                E2           Am9/E
SO MANY MILES BEHIND, STILL I DRIVE, PEDAL DOWN
E2               Am9/E                       E2  Am9/E
OFF THE MAP HOURS BACK, IT'S BENEATH THE SEAT, I THINK
E2          Am9/E                              E2             Am9/E
WITH TWO PENNIES AND A MATCH AND SOMETHING ELSE, I CAN'T REMEMBER
E2             Am9/E                          E2             Am9/E
BUT IN THE TIME THAT IT WOULD TAKE TO FISH IT OUT, I'LL BE ANOTHER MILE GONE
C2     G          D C2
AND I FEEL SO WRONG,
G             D     C2
TRYING TO FEEL RIGHT
   G                      D            C2
IN LIGHT OF ALL THE THINGS I'VE PASSED,
        G                      D
YOU'D THINK THAT I HAVE LEARNED


-CHORUS 1-
        E       G        D        A
THIS IS NOT THE LAND WAS PROMISED ME
E       G        D        A
EVEN AS FAR AS MY EYES CAN SEE
    E       G           D        A
I'M SO WOUND UP LORD I CAN'T EVEN BREATH
  E            G    D        A            E G D A
I DON'T WANT WORDS, I JUST WANT SOME PEACE
          E G D A
SOME PEACE,
          E G D A E G D A
SOME PEACE


E2 Am9/E E2 Am9/E


-VERSE 2-
E2                     Am9/E
IT SEEMS I'VE MISPLACED MY FAITH,
                  E2                   Am9/E
IT'S ELEVEN-TWELVE AND NOTHING'S CHANGED
E2                          Am9/E
WELL NOTHING EXCEPT THE CHANNEL I'M AFRAID,
                   E2                 Am9/E
AND THE NUMBER THERE, NO IT'S THE SAME
E2                     Am9/E
OH THIS MUST BE THE SAVIOR OF THE MONTH,
                    E2                 Am9/E
AND WHAT I MUST HAVE, WHERE'S THE NIGHT GONE?
E2                         Am9/E
'CAUSE I'M SO TIRED AND OUT OF SHAPE,
                      E2      Am9/E
YOU'VE GOTTA GET ME UP, BUT I CAN'T GET UP TODAY
C2               G      D C2
'CAUSE IT'S BEEN SO LONG,
G               D    C2
SINCE I'VE FELT RIGHT
G                   D          C2
ALL THE ROTE, REHEARSAL, PROOF
        G                        D
YOU'D THINK THAT I'D HAVE LEARNED


-CHORUS 1-
        E       G        D        A
THIS IS NOT THE LAND WAS PROMISED ME
E       G        D        A
EVEN AS FAR AS MY EYES CAN SEE
    E       G           D        A
I'M SO WOUND UP LORD I CAN'T EVEN BREATH
  E            G    D        A            E G D A
I DON'T WANT WORDS, I JUST WANT SOME PEACE
          E G D A
SOME PEACE,
          E G D A E G D A
SOME PEACE


-GUITAR SOLO-
E G D A E G D A E G D A E G D A E G D A


-BRIDGE-
     D         C2        G         Bb6
BREAK ME, BREAK ME, BREAK ME, BREAK ME, BREAK ME, BREAK ME


-CHORUS 2-
        E       G        D        A
THIS IS NOT THE LAND WAS PROMISED ME
      E          G        D            A
GOTTA GET OUT OF BED, GET SOMETHING TO READ
        E       G        D      A
I GOTTA FEED MY BROTHER, NOT MY EYES
E       G         D      A
IF NOT, THEN I'LL BE ALL I DESPISE


-CHORUS 1- 
        E       G        D        A
THIS IS NOT THE LAND WAS PROMISED ME
E       G        D        A
EVEN AS FAR AS MY EYES CAN SEE
    E       G           D        A
I'M SO WOUND UP LORD I CAN'T EVEN BREATH
  E            G    D        A            E G D A
I DON'T WANT WORDS, I JUST WANT SOME PEACE
          E G D A
SOME PEACE,
          E G D A E G D A
SOME PEACE.



3. April Showers


Clean Guitar 
------------

Intro:
--2--2--2h3--2--2h3--3--3----------------2--2--2h3--2--2h3--3--3--------------
--3------------------3--3----------------3------------------3--3--------------
--2------------------0--0---------0------2------------------0--0--------------
--0------------------2--2--0h2p0---------0------------------2--0--0h2p0-------
---------------------3--3-----------------------------------3--2---------0----
---------------------------------------------------------------3--------------

(Play twice)

Verse 1:
--------
    D   Cadd9                D     Cadd9  G
  Like April Showers on the slick cement
    D     Cadd9    D                Cadd9  G
  When I consider how our light is spent
    D      Cadd9        D           Cadd9  G
  Keeping the candles inside the cathedral
    D      Cadd9                    D
  Hold on tight, Don't go into the night
   Cadd9      G
  So full of evil

  Cadd9  G  Cadd9 G  D

Chorus:
-------
   G               D
  Rain rain don't go away
   Cadd9            Cadd9
  We need you this dry and dusty day
   G               D
  Rain rain don't go away
   Cadd9            Cadd9
  Though some may say please go away

Solo:
-----

-10-----------------------------------10-- --10-12-12h14-14h15-14--12--------------------
-10-----------------13-12---------10------ ----------------------------12-12-12p10-------
-11-11-11h12-11-11---------12-12---------- ----------------------------12-12-12p11-11----
-12--------------------------------------- -------------------------------------------12-
------------------------------------------ ----------------------------------------------
------------------------------------------ ----------------------------------------------

------------------------- ---0----3--3-
-7-7--------------------- -3---3--3--3-
-7-7--7---7-------------- --------0--0-  Back into Verse...
------7h9-7--5-4\2-0h2-0- --------0--0-  
------------------------- --------2--2-
------------------------- --------3--3-

I tried to break it up into sections where you can hear a "pause".  listen to the cd, you'll
see what i mean.

NOTE on Solo: 2 things about this.  1st, it is my interpretation, so the fingerings
  might be different than Derek's, but it sounds the exact same, i checked several times.
2nd, i play solo guitar, so i have added come chord inversions where usually cliff would
  play, to fill it out.  so sometimes there is _more_ here than on the CD.  as always, mail
  me if you are lost.

Verse 2: (Same as Verse 1)
--------

  Like the April Showers on the slick cement
  And the roads once straight have now become so bent
  Weaving through the trees of vain security
  Rounding round the hard rocks of hard morality

  Cadd9 G  D  (This time the Cadd9 G after verse is played only once)

Chorus (See above)

(Intro Lick is played ONCE)

Bridge:
------- 
   Em      Am7
  And the sacred cows
   Em          Am7
  Feed on the green
   Em          Am7
  While the least of these
       Em           D     Barre-D (10th fret) 
  Are dying on the streets

  And they're crying...

Chorus

Chorus

Outro:
------
  Pick through D-Cadd9-G slowly (ritard)

------------------
Chord Signatures:
------------------

E|-3---3---2----0-----0------10---           
B|-3---3---3----0-----1------10---   
G|-0---0---2----0-----0------11---   
D|-0---2---0----2-----2------12---   
A|-2---3---x----2-----0------12---   
e|-3---x---x----0-----x------10---

   G Cadd9 D   Em    Am7  Barre-D (10th fret)



4. I Just Don't Want Coffee


Capo 3 (self-titled album version is similar, but capo 2)

 .   .   .   .   .   .   .   .   .   .   .   .   .   .   .   .
|---------------|---------------|0-----0---0---0|---------------|
|------1--------|---------------|0h1--h3--h1---0|----0----------|
|0h2------h2---0|---------------|2--------------|----2----------|
|0--------------|----0----------|2--------------|---------------|
|3--------------|---------------|0--------------|0--------------|
|---------------|3--------------|---------------|---------------|

 .   .   .   .   .   .   .   .   .   .   .   .   .   .   .   .
|------3--------|---------------|0--------------|----------0----|
|0-----0--------|----3----------h1--------------|--------------1|
|0h2------h2---0|----0----------|2----h2-----0-0|------------0--|
|0--------------|----0----------|3-----3--------|----3----------|
|2--------------|---------------|0--------------|---------------|
|3--------------|3--------------|1--------------|1--------------|

 .   .   .   .   .   .   .   .   .   .   .   .   .   .   .   .
|----0-0-----0-0|------0--------|----0-0-----0-0|------0--------|
|----1-1-----1-1|----------1----|----1-1-----1-1|----------1----|
|----0-0-----0-0|--------------0|----0-0-----0-0|--------------0|
|----2-2-----2-2|----3-------3--|----2-2-----2-2|----3-------3--|
|3--------------|---------------|3--------------|---------------|
|--------3------|1--------------|--------3------|1--------------|


5. Forget What You Know


Cliff: Clean Guitar (playing in E)
-------------------

Intro:
  (Derek only; Cliff does not play)

Verse 1:
--------
   hE  hAsus2           C#m  A
  My friend why do you whip yourself
   hE       hAsus2  C#m  A
  With the leather of your life
   hE          hAsus2         C#m 
  Why do your memories build like
   A       hE   hAsus2  C#m  A
  Poison in your mind
   
Bridge 1:
---------
   C#m                   A         A   B    C#m
  You're re-running the mistakes  (of your mind)
   C#m               A    E
  In the theater of your mind
   C#m                  A
  Hoping that there'll be
     F#m                 D
  A happily ever after this time

Chrous 1:
---------
   E  open-A
  Let go
   E  open-A   
  Let go
   E  open-A
  Let go
   E   open-A
  And forget what you know

Verse 2: (Same as Verse 1)
--------

  You fear you've walked too far
  In the hemlock forest and you are lost
  But what error could you invent
  With more power than the cross

Chorus 2:
---------
   E  open-A
  Let go
   open-B      open-A
  Your sin is not an axe
   E
  Let go
   open-A            open-B  open-A
  That can fell the sacred tree
   E  open-A
  Let go
   open-B               open-A
  Your regret is not a net
   E
  Let go
   open-A              open-B     open-A
  That can dredge the forgetting sea

(Solo) Play verse chords over it: hE  hAsus2  C#m  A

Bridge 2: (Same as Bridge 1 above)
--------
  A wise man once told me
  When I was dying just the same
  The past can be like sidewalk chalk
  If you will dance and pray for rain

Chorus 3:
---------
  Play Chorus 1, then Chorus 2 until out...


Play verse riff and then stop as Derek, then cajon drums lead out.
-----------------

Derek: (Capo 2 --> His part is in D)
------

Intro: This is _fast_ and is built around a Dsus2 chord.  Practice,
  practice, practice... it is played through all the verses also.

--------0----3----2-----0----------------
-----3---3----3----3----3---3----3-3-3---
---2------2----2----2---2----2-----------
-0----------------------0-----0----------
-----------------------------------------
-----------------------------------------

This is repeated about a million times, i didn't even try to count.
It doesn't change until the bridge

Verse 1:
--------
  Play intro riff

Bridge: (These changes are along with Cliff's... finally, an easy part!)
-------
  Bm  G  (G A Bm)
  Bm  G  D
  Bm  G  Em  C

Chorus 1: (Changes at same time with Cliff)
---------
  D  G
  D  G
  D  G
  D  G

Verse 2:
--------
  Go back to playing intro riff

Chorus 2: (Changes at same time as Cliff's)
---------
  D  G
  A  G
  D  G
  A  G

(Solo)

Bridge 2 (Same as Bridge 1, see above)

Chorus 2: (Same changes as Cliff's)
---------
Play Chorus 1, then Chorus 2 through

Outro:
------
Intro riff over cajon drums, end on strummed Dsus2 chord

------------------
Chord Signatures:
------------------
Cliff: (clean)

E|-0----0-----4----5---0---2---2---0-----0--
B|-0----0-----5----5---0---2---3---0-----0--
G|-0h1--0h2---6----6---1---2---2---6-----8--
D|-0h2--0h2---6----7---2---4---0---7-----9--
A|-0h2--0-----4----7---2---4---x---7-----9--
e|-0----x-----x----5---0---2---x---0-----0--

   hE hAsus2 C#m   A   E  F#m  D open-A open-B

----
Derek (all given relative to capo)

E|-2---3---0---0----2--
B|-3---3---2---0----3--
G|-4---0---2---0----2--
D|-4---0---2---2----0--
A|-2---2---0---2----x--
e|-x---3---x---0----x--

   Bm  G   A   Em   D


6. Another Ten Miles


Intro:

--0-0---0--0----0-0---0-0-0---
--3-3---1--1----3-3---1-1-1---
--4-4---2--2----4-4---2-2-2---
--5-5---3--0----5-5---3-0-0---
--5-5---3--3----5-5---3-3-3---
--3-3---1--0----3-3---1-0-0---

Just repeat this over and over.

The best way to finger this: 
2nd string: 1st finger
3rd string: 2nd finger
4th string: 3rd finger
5th string: 4th finger
6th string: loop thumb over

It will take time to get used to pulling that 3rd finger up, just keep 
practicing. It will come.

Verse 1:
--------
The changes are really fast, so I'm not gonna put chords over words.
I will put the part, it is only 4 strums, and it is just repeated over
and over. Work on playing it muted, it sounds better. Also, in the middle
of each verse, one riff of the intro is thrown in. It is obvious when you
listen to the record.

--3----3---0-0--0---
--3----3---1-1--1---
--0h2------2-2--2---
--0--------3-3--0---
--x--------3-3--3---
--3--------1-1--0---

The best fingering for these:
First one, the one like a G: 
1st string: 4th finger
2nd string: 3rd finger
6th string: 2nd finger, also muting 5th string
3rd string: (the hammer) 1st string

I don't see what you see in me
I'm just flesh and bone
Many hours at the carrousel,
Postcards from far from home
Sometimes I feel as useless
as my empty words, old
president's dogs, clean paws,
no dirt-
What do these words mean?
Sometimes I just don't know.
Sometimes I just can't see
where it is I go- I waste
my whole day thinking over
things I've said and avoiding myself
like the plague in my head

Bridge 1:
---------
Bm7 Cadd9* Bm7
I know that you see me and I know
A Bm7 
You're about me, that's why You
Cadd9*
let me roam

Chorus:
-------

Just play the intro part over and over...

Another 10 Miles...

(Sax solo)

Verse 2: (Same as verse 1, see above)
--------
Where does this all lead, and
why must I follow it?
Nothing is black and white,
(even me, I must admit).
I jot down the facts and work
on consistency, but open up the
closet door; it's George, and 
the cat, and me.
My shifting eyes like sands
cannot focus on the void,
concentration still,
"Get thee behind me, Freud."
I'm grasping at straws and
the bale is almost gone;
the fire's grown much too dim,
nights grow much too long-

Bridge 1 (Same as above)

Chorus (Same as above)

Bridge 2:
---------
Bm F#m A E
I am holding things Yours, not mine
G D/F#
while I should cling to You like a
Bb C D D7
cow beneath the light of a highway sign.


(Percussion and Sax solo)

Bridge 1 (Same as above)

Chorus

Chorus


------------------
Chord Signatures:
------------------

E|-3---2---0---2---2---2---0---1---0---2---2---0--
B|-3---3---2---3---3---2---0---3---1---3---1---3--
G|-0---2---2---4---2---2---1---3---0---2---2---0--
D|-0---0---2---4---4---4---2---3---2---0---0---2--
A|-2---0---0---2---2---4---2---1---3---x---x---3--
E |-3---2---x---x---x---2---0---x--(3)--x---x---x--

__G_ D/F# A Bm Bm7 F#m E Bb C D D7 Cadd9*



enjoy
Добавлено: 09.09.2013
Другие материалы по этой песне:
  • Аккорды и текст

Страница создана 09.09.2013
http://primanota.ru/caedmons-call/just-dont-want-coffee-chords.htm
Привет, Гость.
Предлагаем пройти революционный курс по гитаре.
Подарок от PrimaNota.Ru, забирай!