PrimaNota.ru - самый крупный в мире бесплатный архив песенных текстов, аккордов, табулатур и нот


Cachorro Grande - Me Perdi - таба, видео

Регистрация Запомнить меня
Войти через:  Facebook Google Twitter Vk Yandex Mail.ru

Cachorro Grande - Me Perdi - таба, видео

Печатать
Просмотров: 251
"Me Perdi"
Cachorro Grande
Disco: As Próximas Horas Serão Muito Boas
tablatura: Mateus Pranzetti 

Intro:
e-----------------------------------------2--2-2-0-2-3-2-0-2--|
B----------1-------1-------1--------1-----3--3-3-3-3-3-3-3-3--|
G--------2-------2-------2--------2-------2--2-2-2-2-2-2-2-2--|
D--0-2-3-----3-2-----2-3------3-2-----2-0----0-0-0-0-0-0-0-0--|
A-------------------------------------------------------------|
E-------------------------------------------------------------|

Riff
e-------------2-------|
B--3s5--5-5-5---5-3-5-|
G---------------------|
D---------------------|
A---------------------|
E---------------------|

INTRO 2x

 G      Em   G    Em   RIFF
Sinto muito ontem me perdi
 G      Em   G    Em   RIFF
Sinto muito mas não entendi

INTRO 2x

 G    Em  G    Em    RIFF  
É verdade eu me atrasei
 G      Em    G      Em     RIFF
Tem uma coisa em você que eu não sei

INTRO 2x

 G    Em    G     Em        RIFF
Eu te disse foi você que escolheu
 G     Em      G    Em     RIFF
Naquela noite entre você e eu

INTRO 2x

 G     Em     G     Em    RIFF
Me desculpe eu perdi a razão
 G     Em    G    Em    RIFF
Igual novela na televisão
 G    Em   G     Em   RIFF
É verdade ontem me perdi
 G    Em   G     Em   
É verdade ontem me perdi
Добавлено: 22.02.2012
Другие материалы по этой песне:
  • Аккорды и текст

Страница создана 22.02.2012
http://primanota.ru/cachorro-grande/me-perdi-chords.htm
Привет, Гость.
Предлагаем пройти революционный курс по гитаре.
Подарок от PrimaNota.Ru, забирай!