PrimaNota.ru - самый крупный в мире бесплатный архив песенных текстов, аккордов, табулатур и нот


Cachorro Grande - Lili - таба, видео

Регистрация Запомнить меня
Войти через:  Facebook Google Twitter Vk Yandex Mail.ru

Cachorro Grande - Lili - таба, видео

Печатать
Просмотров: 271
"Lili"
Cachorro Grande
Tab: Mateus Pranzetti 

Intro: Bm F

Riff 1
e----------------------------------|
B-------------12~--12------12-12v--|
G--9s11-11-11---------14b----------|
D----------------------------------|
A----------------------------------|
E----------------------------------|

Riff 2
e----------------------|
B----------------------|
G--9b-9b-9b-9b-7-------|
D----------------9-----|
A----------------------|
E----------------------|

Riff 3
e------------------|
B------------------|
G--9b-9b--7---7----|
D-----------9---9--|
A------------------|
E------------------|

 Bm   Bb   A         G#
Lili tinha um jeito estranho
 Bm   Bb   A         G#
Dormia com um drinque na mão
  G                  E
Saía e rastejava pelo chão

 Bm   Bb    A       G#
Atrás de emoções baratas 
 Bm   Bb    A       G#
que a fizessem se sentir
 G                E
Uma espoleta pipocando
 A     Bb   Bm    E                 Em                Intro
Queria se sentir como a Gretta Cabu on the Night Club

 Bm   Bb     A   G#
Lili via assombração
 Bm   Bb     A   G#
Filosofava no balção
 G              E
Temia atender o telefone

 Bm   Bb      A   G#
E ver quem não queria
 Bm   Bb      A    G#
Dormia só durante o dia 
 G                E
Queria explodir o mundo
 A     Bb   Bm   E                 Em               Riff 1
queria se sentir como a Greta Cabu on the Night Club
 E                Em                Intro
Como a Greta Cabu on the Night Club

Fm E Dm     Fm E Dm
       Lili,      Lili
Fm E  Dm              
       Oh, Lili

Interlude: Bm Bb A G# - 2x

 Bm   Bb    A       G#
Atrás de emoções baratas 
 Bm   Bb    A       G#
que a fizessem se sentir
 G                E
Uma espoleta pipocando
 A    Bb     Bm   E                       Em                Riff 2
Queria se sentir como a como a Greta Cabu on the Night Club
 E                Em                Riff 3
Como a Greta Cabu on the Night Club
 E                Em               Bm
como a Greta Cabu on...the Night Club

Final
e-7s10s7----------7-10-7-|
B--------7s10s7----------|
G------------------------|
D------------------------|
A------------------------|
E------------------------|
Добавлено: 13.05.2012
Другие материалы по этой песне:
  • Аккорды и текст

Страница создана 13.05.2012
http://primanota.ru/cachorro-grande/lili-chords.htm
Привет, Гость.
Предлагаем пройти революционный курс по гитаре.
Подарок от PrimaNota.Ru, забирай!