PrimaNota.ru - самый крупный в мире бесплатный архив песенных текстов, аккордов, табулатур и нот


Cachorro Grande - Bom Brasileiro - бас-таба, видео

Регистрация Запомнить меня
Войти через:  Facebook Google Twitter Vk Yandex Mail.ru

Cachorro Grande - Bom Brasileiro - бас-таба, видео

Печатать
Просмотров: 81
G---------------------------------------------------------------------------------------------------|
D---------------------------------------------------------------------------------------------------|
A----------3---0---3--3---4---5---------------------------------------------------------------------|
E---3---5--------------------------3---4---5----3---4---5-------------------------------------------|


G---------------------------------------------------------------------------------------------------|
D---------------------------------------------------------------------------------------------------|
A---3---4---5-------------3---4---5-----------------------------------------------------------------|
E--------------3---4---5-------------3---4---5---5---4---3---1---5----------------------------------|
Добавлено: 07.12.2015
Вам также может быть интересно:
Другие материалы по этой песне:
  • Аккорды и текст

Страница создана 07.12.2015
http://primanota.ru/cachorro-grande/bom-brasileiro-chords.htm
Привет, Гость.
Предлагаем пройти революционный курс по гитаре.
Подарок от PrimaNota.Ru, забирай!