PrimaNota.ru - самый крупный в мире бесплатный архив песенных текстов, аккордов, табулатур и нот


Cabal Online - Green Despair - таба, видео

Регистрация Запомнить меня
Войти через:  Facebook Google Twitter Vk Yandex Mail.ru

Cabal Online - Green Despair - таба, видео

Печатать
Просмотров: 76
Guitars 1,3,4 - Standard Tuning
Guitar 2      - Half Step Down


e-------------------------------------------------------------|
B---2--------2--------------2--------2------------------------|
G---------------4-----3-----------------4---------------------|
D---------4--------4-----4-----1--4--------4--1--4--------4---|
A------4--------------------------------------------4--4------|
E-------------------------------------------------------------|

e-------------------------------------------------------------|
B---2--------------2--------2---------------------------------|
G------4-----3-----------------4------------------------------|
D---------4-----4-----1--4--------4--1--4---------------------|
A-------------------------------------------------------------|
E-------------------------------------------------------------|

e-------------------------------------------------------------|
B---2--------2--------------2--------2------------------------|
G---------------4-----3-----------------4---------------------|
D---------4--------4-----4-----1--4--------4--1--4--------4---|
A------4--------------------------------------------4--4------|
E-------------------------------------------------------------|

e-------------------------------------------------------------|
B---2--------------2--------2---------------------------------|
G------4-----3-----------------4------------------------------|
D---------4-----4-----1--4--------4--1--4---------------------|
A-------------------------------------------------------------|
E-------------------------------------------------------------|

e-------------------------------------------------------------|
B---2--------2--------------2--------2------------------------|
G---------------4-----3-----------------4--------------1--4---|
D---------4--------4-----4-----1--4--------4--1--4------------|
A------4------------------------------------------------------|
E---------------------------------------------------4---------|
                               v
e------2-----1-----1--------1--0--------------------2-----1---|
B---4--------------------------2-----------------4------------|
G---------1-----1--------3-----3-----------1--4--------1------|
D---------------------4--------4------------------------------|
A------------------------------4------------------------------|
E---------------------------------------4---------------------|

e------1--------1-----------0--0-----------2-----------2------|
B------2------------------------------------------------------|
G---1--3-----3--------1--3--------1--4--1-----4--1--4-----1---|
D---------4---------------------------------------------------|
A------------------4------------------------------------------|
E------------------4-----------4------------------------------|

e------1/2--1-------------------------------------------------|
B---2----------------2--------2--------------2--------2-------|
G--------------------------------4-----3-----------------4----|
D--------------------------4--------4-----4-----1--4----------|
A-----------------------4-------------------------------------|
E-------------------------------------------------------------|
                                                  v
e-------------------------2-----1-----1--------1--0-----------|
B---------------------4---------------------------2-----------|
G---------------1--4---------1-----1--------3-----3-----------|
D---4--1--4------------------------------4--------4-----------|
A-------------------------------------------------4-----------|
E------------4------------------------------------------------|

e---------------------1--------------2------------------------|
B------------4-----------------------------------4------------|
G------1--4--------1-----1--------3--------1-----------1--4---|
D------------------------------4------------------------------|
A-------------------------------------------------------------|
E-------------------------------------------------------------|
                                          v            v    v
e---------------1--------------0----------7------------4----6-|
B---4-------------------------------------7------------6----7-|
G---------1--4-----------3-----------3----8------------6----8-|
D---------------------4---------------------------------------|
A-------------------------------------------------------------|
E-------------------------------------------------------------|
    v            v    v                    v            v
e---4------------4----2--------------------7------------7-----|
B---6------------6----2--------------------7------------7-----|
G---6------------6----3--------------------8------------8-----|
D-------------------------------------------------------------|
A-------------------------------------------------------------|
E-------------------------------------------------------------|
    v                v
e---6----------------4----------------------------------------|
B---7----------------6----------------------------------------|
G---8----------------6----------------------------------------|
D-------------------------------------------------------------|
A-------------------------------------------------------------|
E-------------------------------------------------------------|

2:00            v                    v
e------------6--6-----------------6--6-----------------7------|
B---------------7--------------7-----7--------------7---------|
G------6--------6-----------6--------6-----------8------------|
D---8--------------------8--------------------9---------------|
A-------------------------------------------------------------|
E-------------------------------------------------------------|
                 v
e-------------------------------------------------------------|
B-------------9--9--------------------------------------------|
G----------8-----8--------------------------------------------|
D-------9--------9--------------------------------------------|
A---11-----------11-------------------------------------------|
E-------------------------------------------------------------|
                v                    v
e------------6--6-----------------6--6-----------------7------|
B---------------7--------------7-----7--------------7---------|
G------6--------6-----------6--------6-----------8------------|
D---8--------------------8--------------------9---------------|
A-------------------------------------------------------------|
E-------------------------------------------------------------|
                 v
e-------------------------------------------------------------|
B-------------9--9--------------------------------------------|
G----------8-----8--------------------------------------------|
D-------9--------9--------------------------------------------|
A---11-----------11-------------------------------------------|
E-------------------------------------------------------------|

e---------------------------------------------------------2---|
B-------------------------------------------------------------|
G------8--------4--7--6--------6-----------6--4--------4------|
D---8--------4--------------4-----3--4--3-----------4---------|
A---------6--------------4-----------------------6------------|
E-------------------------------------------------------------|

e------------2------------------------------------------------|
B---------------2---------------------------------------------|
G---4------------------4--------------------------------------|
D------4--1-------------------3/4--4--------------------------|
A-------------------------------------------------------------|
E-------------------------------------------------------------|

4:30
e-------------------------------------------------------------|
B---2--------2--------------2--------2------------------------|
G---------------4-----3-----------------4---------------------|
D---------4--------4-----4-----1--4--------4--1--4------------|
A------4------------------------------------------------------|
E-------------------------------------------------------------|

e-------------------------------------------------------------|
B---2--------2--------------2--------2------------------------|
G---------------4-----3-----------------4---------------------|
D---------4--------4-----4-----1--4--------4--1--4------------|
A------4------------------------------------------------------|
E-------------------------------------------------------------|

e-------------------------------------------------------------|
B---2--------2--------------2--------2------------------------|
G---------------4-----3-----------------4---------------------|
D---------4--------4-----4-----1--4--------4--1--4------------|
A------4------------------------------------------------------|
E-------------------------------------------------------------|


Guitar 2

0:19
e---3-----3--5------3-----3--7------3-----3--5------3-----3--7-|
B------3---------------3---------------3---------------3-------|
G--------------------------------------------------------------|
D--------------------------------------------------------------|
A--------------------------------------------------------------|
E--------------------------------------------------------------|

1:33
e-------------------------------------------------------------|
B-------------------------------------------------------------|
G--------------8/9-7------------------------------------------|
D-------------------------------------------------------------|
A---9/10------------------------------------------------------|
E--------10---------------------------------------------------|

2:45
e---------------------------------------10--------------------|
B------------------------------7/8-------8-----7/8-8----------|
G---7/9--7-7--------------------------------------------------|
D---------------9/10--9--9/10---------------------------------|
A-------------------------------------------------------------|
E-------------------------------------------------------------|
    NH   NH NH
e---12--------------------------------------------------------|
B--------7-----------------------------13---------12----------|
G-----------7-----10/12-----12--14b16------14b16-----12-------|
D-----------------------14------------------------------12----|
A-------------------------------------------------------------|
E-------------------------------------------------------------|

e---8/10--10--------------------------------------------------|
B-------------10h12-----------10/12--13-12--------------------|
G-------------------12----------------------14-12-12h14-------|
D-------------------------------------------------------------|
A-------------------------------------------------------------|
E-------------------------------------------------------------|

e-----------8--10/12-12\10---10----------15--14--10/12-12\----|
B--------8----------------------------------------------------|
G---7/9---------------------------12-12--12--11---7/9---9\----|
D-------------------------------------------------------------|
A-------------------------------------------------------------|
E-------------------------------------------------------------|

e----------------------------------------------7~-------------|
B-------------------------------------------------------------|
G---9-9--9-----------------------------6/7--7-----------------|
D---9-9--9---9-Lp7----7---------------------------------------|
A------------------10----10-----------------------------------|
E-------------------------------------------------------------|

e------------------------------------7/10--8h10p8p7-----------|
B---7b8r----7pb8r--5---------------------------------8--------|
G--------------------7-5--7b9rb9r-----------------------7-----|
D----------------------------------------------------------10-|
A-------------------------------------------------------------|
E-------------------------------------------------------------|

e-------------------------------------------------------------|
B-------------------------------------------------------------|
G-------7-----------------------------------------------------|
D---9---------------------------------------------------------|
A-------------------------------------------------------------|
E-------------------------------------------------------------|

3:39
e-------------------------------------------------------------|
B-------------------------------------------------------------|
G---9~--------------------------------------------------------|
D-------------------------------------------------------------|
A-------------------------------------------------------------|
E-------------------------------------------------------------|

4:06
e--------8-7--------------------------------------------------|
B-------------------------------------------------------------|
G-------------------------------------------------------------|
D---8/9-------------------------------------------------------|
A-------------------------------------------------------------|
E-------------------------------------------------------------|

4:44
e---3-----3--5------3-----3--7------3-------------------------|
B------3---------------3------------3-------------------------|
G-----------------------------------4-------------------------|
D-----------------------------------5-------------------------|
A-----------------------------------5-------------------------|
E-----------------------------------3-------------------------|


Guitar 3 - Strings

0:01
e-------------------------------------------------------------|
B---7---------------------------------------------------------|
G-------------------------------------------------------------|
D-------------------------------------------------------------|
A-------------------------------------------------------------|
E-------------------------------------------------------------|

0:08
e---6--------7--L6p4---4h6--6--------7--------9---------------|
B--------------------7----------------------------------------|
G-------------------------------------------------------------|
D-------------------------------------------------------------|
A-------------------------------------------------------------|
E-------------------------------------------------------------|

e---21--19p18h19p18-----------------23--21p19-18h19--21--21---|
B--------------------19---------------------------------------|
G------------------------18-----------------------------------|
D-------------------------------------------------------------|
A-------------------------------------------------------------|
E-------------------------------------------------------------|

1:01
e-------------------------------------------------------------|
B--------7--------6-------------------------------4-----------|
G---6----L-------------------8--6--------4-----------------6--|
D-------------------------------------------------------------|
A-------------------------------------------------------------|
E-------------------------------------------------------------|

e-------------------------------------------7----9------------|
B--------------------------------------9------------------9---|
G------------------------6----8-------------------------------|
D---6--8------------8-----------------------------------------|
A-------------------------------------------------------------|
E-------------------------------------------------------------|

e----------------------------------6--9---------7--------9----|
B---8----7--------6--------7----9----------7------------------|
G-------------------------------------------------------------|
D-------------------------------------------------------------|
A-------------------------------------------------------------|
E-------------------------------------------------------------|

1:40
e---7----6------------------------------7---------------------|
B-------------7-----------------------------------------------|
G------------------6------------------------------------------|
D-------------------------------------------------------------|
A-------------------------------------------------------------|
E-------------------------------------------------------------|

e-------------6------------7------------11----13--------------|
B---6----9----------------------------------------------12----|
G-------------------------------------------------------------|
D-------------------------------------------------------------|
A-------------------------------------------------------------|
E-------------------------------------------------------------|

2:01
e-----------------6-------------------------------------------|
B---7----------9-----------6----------7--9----6---------------|
G--------------------------------------------------8----------|
D-------------------------------------------------------------|
A-------------------------------------------------------------|
E-------------------------------------------------------------|

e-----------------------------------------6-------------------|
B---6----7--------6---------7----------9---------------6------|
G----------------------6--------------------------------------|
D-------------------------------------------------------------|
A-------------------------------------------------------------|
E-------------------------------------------------------------|

e--------------------------------------------------------11---|
B---7--9----------6--7------------6-------------6-------------|
G--------------------------------------8----------------------|
D-------------------------------------------------------------|
A-------------------------------------------------------------|
E-------------------------------------------------------------|

e-------------------------------------------------------------|
B---7-------------------------------------------------6-------|
G--------7----6--------8----6---------------------------------|
D--------------------------------9----------------------------|
A-------------------------------------------------------------|
E-------------------------------------------------------------|

3:46
e-----------------6-------------------------------------------|
B---7----------9-----------6----------7--9----6---------------|
G--------------------------------------------------8----------|
D-------------------------------------------------------------|
A-------------------------------------------------------------|
E-------------------------------------------------------------|

e-----------------------------------------6-------------------|
B---6----7--------6---------7----------9---------------6------|
G----------------------6--------------------------------------|
D-------------------------------------------------------------|
A-------------------------------------------------------------|
E-------------------------------------------------------------|

e--------------------------------------------------------11---|
B---7--9----------6--7------------6-------------6-------------|
G--------------------------------------8----------------------|
D-------------------------------------------------------------|
A-------------------------------------------------------------|
E-------------------------------------------------------------|

e-------------------------------------------------------------|
B---7-------------------------------------------------6-------|
G--------7----6--------8----6---------------------------------|
D--------------------------------9----------------------------|
A-------------------------------------------------------------|
E-------------------------------------------------------------|

4:35
e-------------------------------------------------------------|
B-------------------------------------------14----------------|
G---16--15p13----13h15--15--------16--------------------------|
D-------------16----------------------------------------------|
A-------------------------------------------------------------|
E-------------------------------------------------------------|

e---18--21--19p18h19p18---------------------------------------|
B------------------------21-19--------------------------------|
G------------------------------18-----------------------------|
D-------------------------------------------------------------|
A-------------------------------------------------------------|
E-------------------------------------------------------------|

e---23--21p19-18h19--21--21-----------------------------------|
B-------------------------------------------------------------|
G-------------------------------------------------------------|
D------------------------16-------------------------------L---|
A-------------------------------------------------------------|
E-------------------------------------------------------------|


Guitar 4 - Piano

0:26
e----------------14--13---------------------------------------|
B---13h14----------------14-14--------------------------------|
G-------------------------------------------------------------|
D-------------------------------------------------------------|
A-------------------------------------------------------------|
E-------------------------------------------------------------|

3:12
e----------------9--9-9------------7----------9--9--10----16--|
B--------------------------------7---9------------------------|
G---6-8-6-8-6------------------8------------------------------|
D-------------------------------------------------------------|
A-------------------------------------------------------------|
E-------------------------------------------------------------|

e----------14-16--------14---------------14-14----------------|
B---14--14------------------------14--16--------16-14---------|
G-------------------------------------------------------------|
D-------------------------------------------------------------|
A-------------------------------------------------------------|
E-------------------------------------------------------------|

e---14----16---18-14------------------------------------------|
B-------------------------------------------------------------|
G-------------------------------------------------------------|
D-------------------------------------------------------------|
A-------------------------------------------------------------|
E-------------------------------------------------------------|

4:37
e----------------14--13---------------------------------------|
B---13h14----------------14-14--------------------------------|
G-------------------------------------------------------------|
D-------------------------------------------------------------|
A-------------------------------------------------------------|
E-------------------------------------------------------------|

v - down stroke arrpegio
/ - slide up
NH- Natural Harmonic
b - bend up
r - release
h - hammer on
p - pull off
\ - slide down
L - tied note
~ - vibrato

----------------
Uploader: IstONE
Добавлено: 22.04.2016
Другие материалы по этой песне:
  • Аккорды и текст

Страница создана 22.04.2016
http://primanota.ru/cabal-online/green-despair-chords.htm
Привет, Гость.
Предлагаем пройти революционный курс по гитаре.
Подарок от PrimaNota.Ru, забирай!