PrimaNota.ru - самый крупный в мире бесплатный архив песенных текстов, аккордов, табулатур и нот


C2c - Down The Road Intro 2 - таба, видео

Регистрация Запомнить меня
Войти через:  Facebook Google Twitter Vk Yandex Mail.ru

C2c - Down The Road Intro 2 - таба, видео

Печатать
Просмотров: 149
Уроки эстрадного вокала в Санкт-Петербурге
I LOVE this song, unfortunately there isnt a tab for the parts I was looking
for. So I have been learning by ear, it's a long and tedious process, but i
plan to tab out the whole song (if im able to). I'll keep updating the tab
as i go, but heres what i got after an hour or two.


please be gentle... its my first tab

legend:

b = bend
h = hammer
p = pull off
/ = slide to
~ = vibrate
r = ring


Clean
0:00
E-----------------------------------------------------------------------------------------------|
B-------4/6-----------6-----------4/6-----------------------------------------------------------|
G-------5/7--5-3------7--5-3------5/7-5-3-------------------------------------------------------|
D------------------------------------------------------------5----------------------------------|
A-----------------------------------------------------------------------------------------------|
E-6b-3------------3-----------3--------------3--3--6b-3--3-6------------------------------------|

0:10
E--5---------------------------6-8-10r--------9-10-12r-----------------------------------------|
B--6-------------------------------------------------------------------------------------------|
G---7p5p0-------------------/7---8-10r----/10---10-12r-----------------------------------------|
D--------5-----5~----5-------------------------------------------------------------------------|
A----------------------------------------------------------------------------------------------|
E------------6------6--------------------------------------------------------------------------|


Distortion
0:17
E--------------------------------------------------------------------------------------------|
B----------------------------------------------------8---------------------------------------|
G----------3h0--------5/7---------------------5/8-10--------------------------------------3--|
D------3----------------------5~----5~-8-5------------------7-5------------3h5-5-3h5-5-------|
A--------------------------------------------------------------------------------------------|
E--3p0----------------------------------------------------------------7/4--------------------|

0:26
E--------------------------------------------------------------------------------10h12h10h12h10-|
B---------------------------------------------------8--------------8b---------------------------|
G----------3h0--------7p5p0------------------5/8-10------7-5------------------------------------|
D------3-----------------------------5~-8-5-----------------------------------------------------|
A-----------------------------------------------------------------------------------------------|
E--3p0------------------------------------------------------------------------------------------|

Добавлено: 30.09.2015
Другие материалы по этой песне:
  • Аккорды и текст

Страница создана 30.09.2015
http://primanota.ru/c2c/down-road-intro-2-chords.htm
Привет, Гость.
Предлагаем пройти революционный курс по гитаре.
Подарок от PrimaNota.Ru, забирай!