PrimaNota.ru - самый крупный в мире бесплатный архив песенных текстов, аккордов, табулатур и нот


C-ute - Chou Wonderful - таба, видео

Регистрация Запомнить меня
Войти через:  Facebook Google Twitter Vk Yandex Mail.ru

C-ute - Chou Wonderful - таба, видео

Печатать
Просмотров: 106
Уроки эстрадного вокала в Санкт-Петербурге
Chou Wonderful
by °C-ute
tabbed by manOutOfTime
UPDATED: Chorus Chords

--------------13----11----------|--------------------13-----11------------|
--------------------------13p10-|----------------------------------13p10--|
------10-11-10----10----10------|------------10-11-10-----10-----10-------|
-3-3----------------------------|-xxxxxx-3-3------------------------------|
-3-3----------------------------|-xxxxxx-3-3------------------------------|
-1-1----------------------------|-xxxxxx-1-1------------------------------|

--------------------13----11----------|---------------------------|
--------------------------------13p10-|---------------------------|
------------10-11-10----10----10------|---------------------------|
-xxxxxx-3-3---------------------------|-xxxxxx-3-3-/7-7-8-8-9-10--|
-xxxxxx-3-3---------------------------|-xxxxxx-3-3-/7-7-8-8-9-10--|
-xxxxxx-1-1---------------------------|-xxxxxx-1-1-/5-5-6-6-7-8---|

INTRO RIFF:
-10p8-10p8-10p8-------|----------------------|--------------|----------------|
----------------11p10-|-11p10-11p10----------|---11---------|---11-----------|
----------------------|-------------12-10vvv-|-10---1010--10|-10---1010--10--|
----------------------|----------------------|----------12--|----------12----|
----------------------|----------------------|--------------|----------------|
----------------------|----------------------|--------------|----------------|
 F5                      D5                    Bb5


-----------------------------------|
-13-12-11-10----10-11-12-13-13-13--|
-------------13--------------------|
-----------------------------------|
-----------------------------------|
-----------------------------------|
 pm===================>
C5
VERSE:

F5                 Bb5        C5    Bb5 F5
Mayuge ga jouzu ni sorowanai  Mecha ochikomu
F5               Bb5          C5    Bb5 F5
Deeto ni kagitte asanebou     Mecha awateru

           Bb5  C5        F5
Chou wonderful  Wow wonderful!

-------------------------------------|
-----5h6------5h6--------5h6----6----|
-----5--------5----------5------5--5-|
-3-3------3-3-------3-3------------5-|
-------------------------------------|
-------------------------------------|

           Bb5  C5        F5
Chou wonderful  Wow wonderful!


-------------------------------------|
-----5h6------5h6--------5h6----6----|
-----5--------5----------5------5--5-|
-3-3------3-3-------3-3------------5-|
-------------------------------------|
-------------------------------------|

VERSE:
F5              Bb5         C5    Bb5   F5
Eiga wo miteite goukyuu     Mecha hanamizu (come on!)
F5                 Bb5      C5    Bb5   F5
Kare to machigatte otousan  Mecha koe niteru

           Bb5 C5        F5
Chou wonderful Wow wonderful!

-------------------------------------|
-----5h6------5h6--------5h6----6----|
-----5--------5----------5------5--5-|
-3-3------3-3-------3-3------------5-|
-------------------------------------|
-------------------------------------|

           Bb5 C5        F5
Chou wonderful Wow wonderful!

-------------------------------------|
-----5h6------5h6--------5h6----6----|
-----5--------5----------5------5--5-|
-3-3------3-3-------3-3------------5-|
-------------------------------------|
-------------------------------------|

BRIDGE:
Bb5               C5
Kenkashita ato wa hansei
F5      E5     D5
Mata yacchatta to
C5
Oh yeah
Bb5            C5
Kare no kigentori
D#5                C5
Shuumatsu shinakya ne

G5 A5 G5  A5 Bb5 C5
A  i  shi te ru  yo!

CHORUS:

F5          D5
Koi wa isogashii no yo
Bb5        C5          C5 Bb5 A5
Ai wa okufukai no yo

---------13-----------|
------10----13-10-----|
---10-------------10--|
10--------------------|
----------------------|
----------------------|

              Bb5  D5
Aa sukoshi no yakimochi ga
Bb5        G5     C5
Kimi e no omoi tsunoraseru wa
G5 A5 Bb5 C5
Sonde motte

F5           D5
Raibu ni yukitai na
Bb5        C5          C5 Bb5 A5
Ryokou ni yukitai na

---------13-----------|
------10----13-10-----|
---10-------------10--|
10--------------------|
----------------------|
----------------------|

              Bb5  D5
Mirai souzou shite
Bb5         C5           F5
Tsui niyake chau watashi desu
Bb5Bb5 Bb5Bb5 C#5C#5 C#5 F5
Koitte chou sugoku wonderful!

INTRO RIFF

VERSE:
F5               Bb5       C5    Bb5 F5
Jitaku ni keitai wasurete  Mecha asetteru
F5               Bb5       C5    Bb5 F5
Byuufe paatii ni shusseki  Mecha harikiru

Bb5             C5        F5
Chou wonderful  Wow wonderful!

-------------------------------------|
-----5h6------5h6--------5h6----6----|
-----5--------5----------5------5--5-|
-3-3------3-3-------3-3------------5-|
-------------------------------------|
-------------------------------------|

Bb5             C5        F5
Chou wonderful  Wow wonderful!

-------------------------------------|
-----5h6------5h6--------5h6----6----|
-----5--------5----------5------5--5-|
-3-3------3-3-------3-3------------5-|
-------------------------------------|
-------------------------------------|

BRIDGE:
Bb5     C5
Isshukan hodo aezu de
F5           E5    D5
Sukoshi sabishii kedo
C5
Oh yeah
Bb5     C5
Ashita wa aeru ne
D#5     C5
Nani kite yukou ka naa?

G5 A5 G5  A5 Bb5 C5
A  i  shi te ru  yo!

CHORUS:
F5          D5
Koi wa tanjun demo
Bb5        C5          C5 Bb5 A5
Ai wa fukuzatsu na no

---------13-----------|
------10----13-10-----|
---10-------------10--|
10--------------------|
----------------------|
----------------------|

              Bb5  D5
Aa sunao ja nai no wa
Bb5        G     C5
Ai no sei ne fukusayou da wa

G5 A5 Bb5 C5
Sonde mo  tte

F5          D5
Ude wo kunde mitai
Bb5        C5          C5 Bb5 A5
Kisu wo chuchutto shitai

---------13-----------|
------10----13-10-----|
---10-------------10--|
10--------------------|
----------------------|
----------------------|

              Bb5  D5
Are kore mousou shite
Bb5         C5           F5
Mata niyake chau watashi desu
Bb5Bb5 Bb5Bb5 C#5C#5 C#5 F5
Imatte chou sugoku wonderful!

SOLO:
-----------------------------------8------------||----------------------------|
------------------------------11-----8---8------||----------------------------|
-------------10-----7-10-7-10----------9---9----||-10-10-----10-10------10----|
---7-10-7-10------8--------------------------10-||------10-10-----10-10---10--|
-8----------------------------------------------||----------------------------|
------------------------------------------------||----------------------------|
 F5               Bb5            C5           x4

--------t-----------t-----------t-----------t----------|--t-----------t-------|
-13-15-18-15-13-15-18-15-13-15-18-15-13-15-18-15-13-15-|-18-15-13-15-18-15-13-|
-------------------------------------------------------|----------------------|
-------------------------------------------------------|----------------------|
-------------------------------------------------------|----------------------|
-------------------------------------------------------|----------------------|

-----t-----------t----|-15b-15b-15br-13------------------|
-15-18-15-13-15-18-15-|-----------------15-13------------|
----------------------|-----------------------14-12------|
----------------------|-----------------------------15vv-|
----------------------|----------------------------------|
----------------------|----------------------------------|

---------------------------13--13--151315-171517-201720-21b-20vv-|
------------13--13--151315---15----------------------------------|
-5/14-12-14---14-------------------------------------------------|
-----------------------------------------------------------------|
-----------------------------------------------------------------|
-----------------------------------------------------------------|

CHORUS:
G5 A5 G5  A5 Bb5 C5
A  i  shi te ru  yo!

F5          D5
Koi wa tanjun demo
Bb5        C5          C5 Bb5 A5
Ai wa fukuzatsu na no

---------13-----------|
------10----13-10-----|
---10-------------10--|
10--------------------|
----------------------|
----------------------|

              Bb5  D5
Aa sunao ja nai no wa
Bb5        G   C5
Ai no sei ne fukusayou da wa

G5 A5 Bb5 C5
Sonde mo  tte

F5            D5
Ude wo kunde mitai

----------17b18r17--------------|
----18-20----------18-20p18vvv--|
-17-----------------------------|
--------------------------------|
--------------------------------|
--------------------------------|

Bb5           C5          C5 Bb5 A5
Kisu wo chuchutto shitai

---------13-----------|
------10----13-10-----|
---10-------------10--|
10--------------------|
----------------------|
----------------------|

              Bb5  D5
Are kore mousou shite
Bb5          G5            F5
Mata niyake chau watashi desu

-19/20-20\18-18\17-18\17-13-------|
----------------------------13vv--|
----------------------------------|
----------------------------------|
----------------------------------|
----------------------------------|

Bb5Bb5 Bb5Bb5 C#5C#5 C#5 F5
Imatte chou sugoku wonderful!

INTRO RIFF

-10p8-10p8-10p8-------|----------------------|--------------|----------------|
----------------11p10-|-11p10-11p10----------|---11---------|---11-----------|
----------------------|-------------12-10vvv-|-10---1010--10|-10---1010--10--|
----------------------|----------------------|----------12--|----------12----|
----------------------|----------------------|--------------|----------------|
----------------------|----------------------|--------------|----------------|

----------------------------|--------------------------|
-13-12-11-10----10-11-12-13-|-13-13--------------------|
-------------13-------------|--------10vvvvvvvvvvvvvvv-|
----------------------------|--------------------------|
----------------------------|--------------------------|
-------------------------x3-|--------------------------|
 pm===================>
Добавлено: 07.04.2016
Другие материалы по этой песне:
  • Аккорды и текст

Страница создана 07.04.2016
http://primanota.ru/c-ute/chou-wonderful-chords.htm
Привет, Гость.
Предлагаем пройти революционный курс по гитаре.
Подарок от PrimaNota.Ru, забирай!